Akor Tab Söz Çeviri Anasayfası
Akor|Tab|Söz|Nota Arşivi
Gitar Akorları | Tab,Söz ve Nota Anasayfası | En Yeni Şarkılar | En Popüler Şarkılar | Akor Cetveli

Bilgiler
 
Seslendiren ve Şarkı: Amatör Şarkıcı - Sevdana Gönül Verdim
Biçim: TAB - FULL
Tarih: 27 Mart 2013 Çarşamba
Gönderen: by_tursu
Toplam Okuyan: 4.894 kişi
Bu Ay Okuyan: 144 kişi
Bu Hafta Okuyan: 8 kişi
 
Beğendiniz mi? Sevdana Gönül Verdim Tab sayfasını Şimdi paylaşın:

Amatör Şarkıcı - Sevdana Gönül Verdim - Tab


Puanlama:
 (1 kişi)


Metin boyutu: ( + Büyült ) ( - Küçült)   

  Sevdana gönül verdim...             Aşkına yürek verdim..
E-6-5-6-5-6-5-6-5-8-6-5-6-5---5-----|-5-5-5---5---5---6-5---5--------------|
B---------------------------8---8-7-|-------8---8---8-----8---8-7-8-7------|
G-----------------------------------|---------------------------------8----|

  Ne senle ne de..                     Yar beni cano..
E-----------------5------------------|-------------------5-----------------|
B-8-8-8-7-8-7-8-7---8-7-8-7---7------|-------------7-8-7---8-7-8-7---7-----|
G---------------------------8---8-7--|-8--8-8--8-8-----------------8---8-7-|

  Sevemem senden başka..                    dil söyler kalbim..
E-6-6-6--6-6-8-10-8-11-10 8 10-8-6-8-6-5--|-5-5-5--5-5-6-8-6-10-8-6-8-6-5-6-5----|
B-----------------------------------------|-----------------------------------8--|
G-----------------------------------------|--------------------------------------|

  Kulağımdan sesini..                   Atamam ah atamam..
E------------5-6-5-8-6-5-6-5---5------|-------------------5-----------------|
B-8-8-8--8-8-----------------8---8-7--|-------------7-8-7---8-7-8-7---7-----|
G-------------------------------------|-8--8-8--8-8-----------------8---8-7-|
Sevdana Gönül Verdim Tab, AkorMerkezi.com'da yayınlanmıştır.
http://www.akormerkezi.com


İçerik Kısa Linki:


Beğendiniz mi? Sevdana Gönül Verdim Tab sayfasını Şimdi paylaşın:


Sevdana Gönül Verdim Tab için Komoçotoko'dan Gelenler
Aramalar: sevdana gönül verdim guitar, sevdana gönül verdim sözleri notalari, sevdana gönül verdim akor tab, sevdana gönül verdim beni gitar nota, sevdana gönül verdim şarkı sözleri, sevdana gönül verdim akormerkezi, sevdana gönül, sevdana tab, sevdana gönül verdim sözleri akor, sevdana gonul verdim soz akor
Amatör Şarkıcı - Sevdana Gönül Verdim için Kullanıcı Görüşleri

Henüz buraya yazan çizen olmamış. Yorum yapmak için buraya tıklayabilirsiniz.


Siz de Görüş Bildirin

Yorum yazma alanı Akor Merkezi üyelerine özel bir bölümdür. (Giriş Yap / Üye Ol / Şifremi Hatırlat)


PAYLAŞ

Reklam



Anket
ThrashMetal soruyor:
Gerçek Metalci Kimdir?










Sonuçlar | Sonuçlar & Yorumlar
Yeni Anket | Anketler




Reklam


Radyo Dinle
AkorMerkezi.com © 2014
İletişim - Gizlilik Politikası - Kullanım Koşulları - Kurallar - Son Yorumlar - Rastgele

GitarAkor.com kolonisidir. Derleme 0,03 saniye.