Akor Tab Söz Çeviri Anasayfası
Akor|Tab|Söz|Nota Arşivi
Gitar Akorları | Tab,Söz ve Nota Anasayfası | En Yeni Şarkılar | En Popüler Şarkılar | Akor Cetveli

Bilgiler
 
Seslendiren ve Şarkı: Anonim Türküler - Divane Aşık Gibi
Biçim: TAB - HİÇBİRİ
Tarih: 30 Ocak 2010 Cumartesi
Gönderen: bsuctu
Toplam Okuyan: 38.610 kişi
Bu Ay Okuyan: 1.218 kişi
Bu Hafta Okuyan: 282 kişi
 
Beğendiniz mi? Divane Aşık Gibi Tab sayfasını Şimdi paylaşın:

Anonim Türküler - Divane Aşık Gibi - Tab


Puanlama:
 (10 kişi)

Divane Aşık Gibi şarkısının diğer versiyonlarına bakın >>

Metin boyutu: ( + Büyült ) ( - Küçült)   
E----------------------------------------------------------------------)
A----------------------------------------------------------------------)
D----------------------------------------------------------------------)
G------------------------------------------------------3---------------)2 KEZ  
B--2--3-5--5----6--6--5--3--3--3------2--3--3--3--3--2-----------------)
E----------------------------------------------------------------------)


E----------------------------------------------------------------------)
A----------------------------------------------------------------------)
D----------------------------------------------------------------------)
G-----------------3----------------------3-----------------------------)2 KEZ
B--5--3--3--3-2-----------5--3--3--3-2---------------------------------)
E----------------------------------------------------------------------)


E----------------------------------------------------------------------)
A----------------------------------------------------------------------)
D----------------------------------------------------------------------)
G--2--2--3-----3--2--3--2-------2--2--2--2--2--------------------------) 2 KEZ
B----------2-----------------------------------------------------------)
E----------------------------------------------------------------------)

Divane Aşık Gibi Tab, AkorMerkezi.com'da yayınlanmıştır.
http://www.akormerkezi.com


İçerik Kısa Linki:


Beğendiniz mi? Divane Aşık Gibi Tab sayfasını Şimdi paylaşın:


Divane Aşık Gibi şarkısı için amatör kayıtları dinleyin: (Siz de Ekleyin)

Divane Aşık Gibi Tab için Komoçotoko'dan Gelenler
Aramalar: divane aşık gibi bass tab, divane asik gibi arpej, divane aşık gibi gitar ritim, divane asikk gibi tab, asik gitar tab, divane aşık gibi gitarda notalar, divane tabi, divane adik gibi tab, divane asik akpr arpej, divane asik gibi gitar notasi
Anonim Türküler - Divane Aşık Gibi için Kullanıcı Görüşleri

TELLERİ YANLIŞ YAZMIŞŞSIN


Bu Yoruma Cevap Ver
gitaristrh | 06 Nisan 2012 Cuma 21:35
02 Şubat 2010 Salı tarihinde sungur_45 yazmıştı:
İLKBÖLÜMDE ---6-6--5-5 DEKİ 5 lerden biri fazlamı ?
hızlı geçiş yap, fazla değil :)


Bu Yoruma Cevap Ver
GitaristDeep | 19 Mart 2012 Pazartesi 19:28
05 Mart 2011 Cumartesi tarihinde Ibanez S yazmıştı:
Biraz değiştirerek düzelttim iyi eğlenceler...



E----------------------------------------------------------------------)
B--2--3-5--5----6--6--5--3--3--3------2--3--3--3--5--3-------)
G------------------------------------------------------3----)
D----------------------------------------------------------------------)
A----------------------------------------------------------------------)
E----------------------------------------------------------------------)


E----------------------------------------------------------------------)
B--5--3--3--3-2---------5--3--3--3-2---------------------------------)
G---------------3--------------------3-----------------------------) 2 KEZ
D------------------------------------------------------------------------)
A----------------------------------------------------------------------)
E----------------------------------------------------------------------)


E----------------------------------------------------------------------)
B-----------2-----------------------------------------------------------)
G--2--2--3-----3--3--2--2-------2--2--2--2--2--------------------------) 2 KEZ
D----------------------------------------------------------------------)
A----------------------------------------------------------------------)
E----------------------------------------------------------------------)
.
E----------------------------------------------------------------------) B--2--3-5--5----6--6--5--3--3--3------2--3--3--3--5--3-------)
G------------------------------------------------------3----)
D----------------------------------------------------------------------) A----------------------------------------------------------------------)
E----------------------------------------------------------------------)

E----------------------------------------------------------------------) B--5--3--3--3-2---------5--3--3--3-2---------------------------------) G---------------3--------------------3-----------------------------) 2 KEZ D------------------------------------------------------------------------) A----------------------------------------------------------------------)
E----------------------------------------------------------------------)

E----------------------------------------------------------------------) B-----------2-----------------------------------------------------------) G--2--2--3-----3--3--2--2-------2--2--2--2--2--------------------------) 2 KEZ D----------------------------------------------------------------------) A----------------------------------------------------------------------)
E----------------------------------------------------------------------)


Bu Yoruma Cevap Ver
Ibanez S | 05 Mart 2011 Cumartesi 13:22
Biraz değiştirerek düzelttim iyi eğlenceler...



E----------------------------------------------------------------------)
B--2--3-5--5----6--6--5--3--3--3------2--3--3--3--5--3-------)
G------------------------------------------------------3----)
D----------------------------------------------------------------------)
A----------------------------------------------------------------------)
E----------------------------------------------------------------------)


E----------------------------------------------------------------------)
B--5--3--3--3-2---------5--3--3--3-2---------------------------------)
G---------------3--------------------3-----------------------------) 2 KEZ
D------------------------------------------------------------------------)
A----------------------------------------------------------------------)
E----------------------------------------------------------------------)


E----------------------------------------------------------------------)
B-----------2-----------------------------------------------------------)
G--2--2--3-----3--3--2--2-------2--2--2--2--2--------------------------) 2 KEZ
D----------------------------------------------------------------------)
A----------------------------------------------------------------------)
E----------------------------------------------------------------------)


Bu Yoruma Cevap Ver
Ibanez S | 05 Mart 2011 Cumartesi 13:20
emeğne sağlık kardeş ama ters olmuş:D


Bu Yoruma Cevap Ver
metaliRock | 10 Ağustos 2010 Salı 16:25
05 Mayıs 2010 Çarşamba tarihinde Albay[RoCk] yazmıştı:
ters deilmi bu ::S:S
aynen:)


Bu Yoruma Cevap Ver
by-tar | 12 Haziran 2010 Cumartesi 02:18
ters deilmi bu ::S:S


Bu Yoruma Cevap Ver
Albay[RoCk] | 05 Mayıs 2010 Çarşamba 19:29
Hayır hiç bi yanlışlık yok orjinal sestir;)


Bu Yoruma Cevap Ver
seckin94 | 20 Şubat 2010 Cumartesi 22:34
İLKBÖLÜMDE ---6-6--5-5 DEKİ 5 lerden biri fazlamı ?


Bu Yoruma Cevap Ver
sungur_45 | 02 Şubat 2010 Salı 19:14


Siz de Görüş Bildirin

Yorum yazma alanı Akor Merkezi üyelerine özel bir bölümdür. (Giriş Yap / Üye Ol / Şifremi Hatırlat)


PAYLAŞ

Reklam



Anket
efendi122 soruyor:
Sizce Takamine G128s Sahnede İdare Edebilir mi ?







Sonuçlar | Sonuçlar & Yorumlar
Yeni Anket | Anketler




Reklam


Radyo Dinle
AkorMerkezi.com © 2014
İletişim - Gizlilik Politikası - Kullanım Koşulları - Kurallar - Son Yorumlar - Rastgele

GitarAkor.com kolonisidir. Derleme 0,03 saniye.