Akor Tab Söz Çeviri Anasayfası
Akor|Tab|Söz|Nota Arşivi
Gitar Akorları | Tab,Söz ve Nota Anasayfası | En Yeni Şarkılar | En Popüler Şarkılar | Akor Cetveli

Bilgiler
 
Seslendiren ve Şarkı: Aslı - Tüm Şehir Ağladı
Biçim: TAB -
Tarih: 01 Haziran 2007 Cuma
Gönderen: hunter1277
Toplam Okuyan: 6.285 kişi
Bu Ay Okuyan: 64 kişi
Bu Hafta Okuyan: 0 kişi
 
Beğendiniz mi? Tüm Şehir Ağladı Tab sayfasını Şimdi paylaşın:

Aslı - Tüm Şehir Ağladı - Tab


Puanlama:
 (1 kişi)

Tüm Şehir Ağladı şarkısının diğer versiyonlarına bakın >>

Metin boyutu: ( + Büyült ) ( - Küçült)   
e-----------------7-5-------------------5-3----------------7-5------------------------
B--8-7-5-------------------------------------8-7-5--------------8-7-8---5----5-7-8-7-5
G----------7--5---------7-5--3h5-3--1-0-----------------7-5----------------7----------
D-------------------------------------------------------------------------------------
A-------------------------------------------------------------------------------------
E-------------------------------------------------------------------------------------


e---7-------------5-7h8---7-5---------------------------------------------------------
B----------7-8---------------------8-7-5----------------------------------------------
G-------------------------------------------------------------------------------------
D-------------------------------------------------------------------------------------
A-------------------------------------------------------------------------------------
E-------------------------------------------------------------------------------------


gayet hos bı sarkı calın bakalım umarm 
hosunuza gıder..ayna severek ayrılanlar 
tabıda var onada bakmadan gecmeyın derım...
tesekkurler
Tüm Şehir Ağladı Tab, AkorMerkezi.com'da yayınlanmıştır.
http://www.akormerkezi.com


İçerik Kısa Linki:


Beğendiniz mi? Tüm Şehir Ağladı Tab sayfasını Şimdi paylaşın:


Tüm Şehir Ağladı Tab için Komoçotoko'dan Gelenler
Aramalar: tüm şehir ağladı akor tab, aslı+tüm+şehir+ağladı+ara+solo, aslı gökyokuş tüm şehir ağladı solo, aslı tüm şehir ağladı orjinal akor, tüm şehir ağladı gitar tabı, tüm şehir ağladı solo, Aslı Tüm Şehir Ağladı, aslı gökyokuş tüm şehir ağladı bass tabları, aslı tüm şehir ağladı tablature, aslı tüm şehir ağladı solo tab
Aslı - Tüm Şehir Ağladı için Kullanıcı Görüşleri

dostum emeğe saygı ama ben melodiye uyduramadım bu tab intoda elektro gitarın çaldığı kısımmı yoksa en bastan berimi


Bu Yoruma Cevap Ver
ertrkumut | 18 Nisan 2011 Pazartesi 19:57
-3h5- bu ne?


Bu Yoruma Cevap Ver
Drizz+ | 27 Ağustos 2009 Perşembe 10:41
bu da basit ve güzel olmuş :) devamını beklerz


Bu Yoruma Cevap Ver
ozguur | 11 Haziran 2009 Perşembe 15:37
beyler kusura bkmayın yanlıs olmus 7-5--3h5-3--1-0 kısmı B telınde olcak alt sıraya yazmısm


Bu Yoruma Cevap Ver
hunter1277 | 01 Haziran 2007 Cuma 19:58


Siz de Görüş Bildirin

Yorum yazma alanı Akor Merkezi üyelerine özel bir bölümdür. (Giriş Yap / Üye Ol / Şifremi Hatırlat)


PAYLAŞ

Reklam



Anket
darkness034 soruyor:
Hangi gitar daha iyi ?









Sonuçlar | Sonuçlar & Yorumlar
Yeni Anket | Anketler




Reklam


Radyo Dinle
AkorMerkezi.com © 2014
İletişim - Gizlilik Politikası - Kullanım Koşulları - Kurallar - Son Yorumlar - Rastgele

GitarAkor.com kolonisidir. Derleme 0,03 saniye.