Akor Tab Söz Çeviri Anasayfası
Akor|Tab|Söz|Nota Arşivi
Gitar Akorları | Tab,Söz ve Nota Anasayfası | En Yeni Şarkılar | En Popüler Şarkılar | Akor Cetveli

Bilgiler
 
Seslendiren ve Şarkı: Aslı Türk - Kan Taneleri
Biçim: Akor, Gitar Akorları - FULL
Tarih: 18 Mayıs 2011 Çarşamba
Gönderen: Gitarist_Serkan
Toplam Okuyan: 7.086 kişi
Bu Ay Okuyan: 38 kişi
Bu Hafta Okuyan: 6 kişi
 
Beğendiniz mi? Kan Taneleri Akor sayfasını Şimdi paylaşın:

Aslı Türk - Kan Taneleri - Akor

  (versiyon 3)
Puanlama:
 (2 kişi)

Kan Taneleri şarkısının diğer versiyonlarına bakın >>

Metin boyutu: ( + Büyült ) ( - Küçült)   
ASLI TÜRK - KAN TANELERİ (SOLO VE AKOR)


-SOLO-

E-----------------------|--3-5-6--6-8--6-5-3-----|
B--3-4--6-6--4-6-4--3-3-|------------------------|
G-----------------------|------------------------|
D-----------------------|------------------------|
A-----------------------|------------------------|
E-----------------------|------------------------|

E--3-5-6--6-8--6-5-3-3--|--1-3-5-5--3-5-3--1-1---|     
B-----------------------|------------------------|
G-----------------------|------------------------|      
D-----------------------|------------------------|
A-----------------------|------------------------|
E-----------------------|------------------------|

E-----------------------|------------------------|
B--4-6-8-8--6-8-6--4-4--|--3-4-6-6--4-6-4--3-----|
G-----------------------|------------------------|
D-----------------------|------------------------|
A-----------------------|------------------------|
E-----------------------|------------------------|

-NAKARAT SOLO-

E--3-5-6--6-8--6-5-3----|--1-3-5-5--3-5-3--1-----|
B-----------------------|------------------------|
G-----------------------|------------------------|
D-----------------------|------------------------|
A-----------------------|------------------------|
E-----------------------|------------------------|

E-----------------------|------------------------|
B--4-6-8-8--6-8-6--4----|--3-4-6-6--4-6-4--3-----|
G-----------------------|------------------------|
D-----------------------|------------------------|
A-----------------------|------------------------|
E-----------------------|------------------------|



Dm                     Cm9
Aklım hayalim almıyor, nasıl bir haberdi bu
Cm9                    Dm
Ölümünü duysaydım da, bunu hiç bilmeseydim
Cm7                       F7            Dm
Düşünceler dar geliyor, zehrime zehir oldu

Dm                     Cm9
Ayrılık umurumda değil, ellerin onun oldu
Cm9                    Dm
Gözlerim kör olsaydı da, her gece dolmasaydı
Cm7                       F7            Dm
Bu hayat bundan böyle, benim için geçmiş oldu

Cm9
Avucumda kan taneleri
Dm  
Unutursan haram olsun
Cm7
Ne olur ona söylediğin
F7                Dm
Bu sonuncu yalan olsun

Cm9 
Giderken ardına bakma
Dm
Yakışır bir veda olsun
Cm7
Hayatımı mahvettin ama
F7                Dm
Güzel roldu helal olsun


-----------------------
Umarım Beğenirsiniz ;)
-----------------------
Kan Taneleri Akor, AkorMerkezi.com'da yayınlanmıştır.
http://www.akormerkezi.com


İçerik Kısa Linki:


Beğendiniz mi? Kan Taneleri Akor sayfasını Şimdi paylaşın:


Aslı Türk - Kan Taneleri KULLANILAN AKORLAR (Beta)
Dmx 0 0 2 3 1
Cm7x 3 5 3 4 3
F7x x 1 2 1 1x x 3 5 4 5
Şarkıda kullanılan akorların farklı şekillerde basılışlarıdır. (Detaylı bilgi)

Kan Taneleri şarkısı için amatör kayıtları dinleyin: (Siz de Ekleyin)

Kan Taneleri Akor için Komoçotoko'dan Gelenler
Aramalar: aslı türk avucumda kan taneleri akor, Kan taneleri, avcumda kan taneleri akor, avcumda kan taneleri, kan taneleri gitar akoru, avucumda kan taneleri gitar ritmi, gitar akorları şarkıları kan taneleri, avcumda kan taneleri akor, avcumda kan taneleri qitara akordlari, kan taneleri
Aslı Türk - Kan Taneleri için Kullanıcı Görüşleri

Henüz buraya yazan çizen olmamış. Yorum yapmak için buraya tıklayabilirsiniz.


Siz de Görüş Bildirin

Yorum yazma alanı Akor Merkezi üyelerine özel bir bölümdür. (Giriş Yap / Üye Ol / Şifremi Hatırlat)





Anket
assassintr soruyor:
Sizce Metallica'nın Yeni Albümü Nasıl Olacak?










Sonuçlar | Sonuçlar & Yorumlar
Yeni Anket | Anketler



Radyo Dinle
AkorMerkezi.com © 2017
İletişim - Gizlilik Politikası - Kullanım Koşulları - Kurallar - Son Yorumlar - Rastgele

GitarAkor.com kolonisidir. Derleme 0,03 saniye.