Akor Tab Söz Çeviri Anasayfası
Akor|Tab|Söz|Nota Arşivi
Gitar Akorları | Tab,Söz ve Nota Anasayfası | En Yeni Şarkılar | En Popüler Şarkılar | Akor Cetveli

Bilgiler
 
Seslendiren ve Şarkı: Athena - Kime Ne
Biçim: TAB -
Tarih: 06 Kasım 2005 Pazar
Gönderen: gitarhastası
Toplam Okuyan: 15.099 kişi
Bu Ay Okuyan: 291 kişi
Bu Hafta Okuyan: 41 kişi
 
Beğendiniz mi? Kime Ne Tab sayfasını Şimdi paylaşın:

Athena - Kime Ne - Tab


Puanlama:
 (4 kişi)

Kime Ne şarkısının diğer versiyonlarına bakın >>

Metin boyutu: ( + Büyült ) ( - Küçült)   
ATHENA KİME NE?

e|--------------------------------------------------------------|
B|--------------------------------------------------------------|
G|--------------------------------------------------------------|
D|--12--11--12-\14--9------9---------------------9--------------|
A|---------------------10-----12--10--9--10-\12-----12--10-9-7--|
E|--------------------------------------------------------------|


e|-----------------------------------------------------------------------|
B|-----------------------------------------------------------------------|
G|-----------------------------------------------------------------------|
D|--12--11--12-\14--9------9---------------------------------------------|
A|---------------------10-----12--10--9--10-9-9-9-9--7-7-7-7--5-5-5-5-\9-|
E|-----------------------------------------------------------------------|

|----------------------|
|----------------------|
|----------------------|
|--10--10--10--10--10--|
|--10--10--10--10--10--|
|--8---8---8---8---8---|

arkadaşlar şimdilik bu intro var. 
bu benim ilk tabım bu yüzden hatalar olabilir
varsa kusura bakmayın. ben böyle çalıyom
Kime Ne Tab, AkorMerkezi.com'da yayınlanmıştır.
http://www.akormerkezi.com


İçerik Kısa Linki:


Beğendiniz mi? Kime Ne Tab sayfasını Şimdi paylaşın:


Kime Ne Tab için Komoçotoko'dan Gelenler
Aramalar: athena kime ne tab akor, athena tab, kime ne kolay tab, kime+ne+tab, kime ne full tab, athena kime ne nota, athena kime e tab, kime ne bateri tab, athena kime ne notaları, atheana kime ne tab
Athena - Kime Ne için Kullanıcı Görüşleri

mallesef kardeşim olamamış çok çalış çok denersen olabilir başarılar...


Bu Yoruma Cevap Ver
batu-grunge-33 | 14 Haziran 2012 Perşembe 16:41
o baştaki noktalar ne ifade ediyo soloda biri bana anlatsın yhaaaa anlamıyorum arkadaş


Bu Yoruma Cevap Ver
AthenaKolik | 06 Eylül 2011 Salı 12:46
size düzgününü vereyim :S


Bu Yoruma Cevap Ver
Alfonso12345 | 28 Ağustos 2011 Pazar 03:43
şarkının ne oldğu kolaylkla anlaşılıyo sadece biraz kalndan girmiş arkadş, son kısım şüpheli, gayet güzel yani emeğine sağlık hocam.:)


Bu Yoruma Cevap Ver
fosman | 17 Mayıs 2010 Pazartesi 11:00
e|---------------------------------------------------------------------------------------------------------5--4--5-5-5-4-4-4-2-2--0-4-2------------------|
B|---5--4--5-7--2-----2------------------------------------------------5--4--5-7--2------2-------------------------------------------------------|
G|-------------------2------4------4--3--4--6---4---1-/2-1---------------------------2------4---------------------------------------------|
D|----------------------------------------------------------------4----------------------------------------------------------|
A|-----------------------------------------------------------------------------------------------------------------------|
E|-----------------------------------------------------------------------------------------------------------------------|

buyrun dogrusu :D


Bu Yoruma Cevap Ver
kentclub | 27 Şubat 2009 Cuma 23:20
ARKADŞALAR EĞER HER NOTAYI 3 TEL ALTTAN ÇALARSANIZSOLO DOĞRU OLUYOR AMA ORİJİNALİNE GÖRE BİR OKTAV DÜŞÜK... ARKADAŞIN YAZDII MI ANAHTARINDAN FAKAT ORİJİNALİ FA# DEN...
kolay gele


Bu Yoruma Cevap Ver
kentclub | 27 Şubat 2009 Cuma 23:13
ya bilader ne yaptın sen ya bu ne


Bu Yoruma Cevap Ver
love_to_believe | 25 Eylül 2006 Pazartesi 21:46
arkadaşım olmuş ama biraz zor yerden yazmışsın good job men


Bu Yoruma Cevap Ver
djorko | 30 Mayıs 2006 Salı 12:29
elemanlar orijinal e gore yoruom yapıyo ;ama bencede omuş olmuyo dıelerın kulagına na ne desm kı.)


Bu Yoruma Cevap Ver
bugs bunny | 22 Şubat 2006 Çarşamba 14:17
Hocam,İntro da bi sorun yok aslında, neden olmamış diyolar anlamadım! gayet güzel olmuş bence


Bu Yoruma Cevap Ver
psycho_slipknot | 06 Şubat 2006 Pazartesi 21:41
KİME NE ŞARKISININ DİĞER TABINA BAKIN DAHA KOLAY YERDEN CALINIYOR AMA SONU YANLIS OLDUGU ICIN BEN DUZELTTIM ORADAN EKLEME YAPIN KEYFINIZE BAKIN


Bu Yoruma Cevap Ver
mazonami | 05 Şubat 2006 Pazar 16:10
abi bu walla yanlış ama biraz uğraşsan olcakmış hadi kolay gele!


Bu Yoruma Cevap Ver
anilsub | 24 Ocak 2006 Salı 23:28
ne bu yaw kime ne diil bu apayrı bi beste olmuş
ellerine saalık..


Bu Yoruma Cevap Ver
_gokhann_ | 18 Aralık 2005 Pazar 22:14
feynk


Bu Yoruma Cevap Ver
46133 | 12 Aralık 2005 Pazartesi 01:08
BENCEDE


Bu Yoruma Cevap Ver
UNUTTUM | 01 Aralık 2005 Perşembe 13:49
zaten kendim yaptım


Bu Yoruma Cevap Ver
hammer19 | 25 Kasım 2005 Cuma 13:42
bu ne yaa baska bi sarkı gibi olmuus sanki ama yinede guzel beste bravoo


Bu Yoruma Cevap Ver
_playboy_ | 22 Kasım 2005 Salı 20:32
iyi kendin yap ozamam


Bu Yoruma Cevap Ver
gitarhastası | 21 Kasım 2005 Pazartesi 18:02
hiç hiç olmamış arkadaşım


Bu Yoruma Cevap Ver
hammer19 | 21 Kasım 2005 Pazartesi 13:49
OOOOOHOOOOOOOOOO OLMAMIS HİİİİİÇÇÇÇÇÇ


Bu Yoruma Cevap Ver
muısty | 19 Kasım 2005 Cumartesi 15:26
sağol arkadaşım ben bide öyle denerim
klibinde böyle çalıyodu sanki


Bu Yoruma Cevap Ver
gitarhastası | 07 Kasım 2005 Pazartesi 18:14
dostum çıkardığın tona göre solo fena değil ama orjinal solo mi den başlıyo!mi olarak da 2.tel'in(si) 5. perdesinden başlarsanız kolay olur!aslında ortadaki solo harici kolay bi solosu var


Bu Yoruma Cevap Ver
capcup | 06 Kasım 2005 Pazar 21:21


Siz de Görüş Bildirin

Yorum yazma alanı Akor Merkezi üyelerine özel bir bölümdür. (Giriş Yap / Üye Ol / Şifremi Hatırlat)


PAYLAŞ

Reklam



Anket
kobeoguz soruyor:
Gibson Les Paul mu? Gibson SG mi?









Sonuçlar | Sonuçlar & Yorumlar
Yeni Anket | Anketler




Reklam


Radyo Dinle
AkorMerkezi.com © 2014
İletişim - Gizlilik Politikası - Kullanım Koşulları - Kurallar - Son Yorumlar - Rastgele

GitarAkor.com kolonisidir. Derleme 0,05 saniye.