Akor Tab Söz Çeviri Anasayfası
Akor|Tab|Söz|Nota Arşivi
Gitar Akorları | Tab,Söz ve Nota Anasayfası | En Yeni Şarkılar | En Popüler Şarkılar | Akor Cetveli

Bilgiler
 
Seslendiren ve Şarkı: Badem - Yorgunum
Biçim: TAB - SOLO
Tarih: 13 Şubat 2011 Pazar
Gönderen: afgitarist
Toplam Okuyan: 5.103 kişi
Bu Ay Okuyan: 80 kişi
Bu Hafta Okuyan: 19 kişi
 
Beğendiniz mi? Yorgunum Tab sayfasını Şimdi paylaşın:

Badem - Yorgunum - Tab


Puanlama:
 (20 kişi)

Yorgunum şarkısının diğer versiyonlarına bakın >>

Metin boyutu: ( + Büyült ) ( - Küçült)   
-----------------------------------------------------------------------------------------------------
---------------------------------------------------------11--10--8--6-----10--8--6--5----------------
-----------------------------------------------------------------------------------------------------
--5-3-5-3-5-3-5-3-5-3-5-3-5-3-5-3-5-3-5-3-5-3-5-3-5--------------------------------------------------
-----------------------------------------------------------------------------------------------------
-----------------------------------------------------------------------------------------------------


---------------------------------8--10--------------------- -----------------------------------------
--8--6--5--3------5--6----8--11---------10----------------- -----------------------------------------
----------------------------------------------7--9--10----- ---------------------7------7--10--7--10--
----------------------------------------------------------- -8--7--8--10--8--10-----10----------------
----------------------------------------------------------- ------------------------------------------
----------------------------------------------------------- ------------------------------------------


-----------------------8------8--10----------------------12--13--12--------------12--13--12----------
--8------8--10--8--10-----10---------------------13--15--------------15--13--15--------------15------
-----10----------------------------------------------------------------------------------------------
-----------------------------------------------------------------------------------------------------
-----------------------------------------------------------------------------------------------------
-----------------------------------------------------------------------------------------------------


----------12--13--12--------------12--15--12--15--15^ (15e bas yukarı çek)---------------------------
--13--15--------------15--13--15------------------------------------------------10-----10--8---------
------------------------------------------------------------------------------------7---------9--10--
-----------------------------------------------------------------------------------------------------
-----------------------------------------------------------------------------------------------------
-----------------------------------------------------------------------------------------------------


-----------------------------------------------------------------------------------------------------
-----------------------------------------------------------------------------------------------------
--9--7-----------------------------------------------------------------------------------------------
-------------7-----7--5--------5--5--8--7--5-----7--5------------------------------------------------
----------------5--------7--8-----------------8--------8--5--5--7--8--7--7--8--7--5------------------
-----------------------------------------------------------------------------------------------------



Yorgunum Tab, AkorMerkezi.com'da yayınlanmıştır.
http://www.akormerkezi.com


İçerik Kısa Linki:


Beğendiniz mi? Yorgunum Tab sayfasını Şimdi paylaşın:


Yorgunum Tab için Komoçotoko'dan Gelenler
Aramalar: badem değişmem solo öğren, yorgunum badem, badem yorgunum solo tab, yorgunum, badem yorgunum bas, yorgunum badem akor, yorgunum akor, yorgunum badem tab, badem degişmem söz tab akor solo, çok yorgunum tab
Badem - Yorgunum için Kullanıcı Görüşleri

Eyvallaah.. Teşekkür Ederim.. :)


Bu Yoruma Cevap Ver
afgitarist | 13 Eylül 2012 Perşembe 18:49
mükemmel olmuş kardesim ellerine sağlık


Bu Yoruma Cevap Ver
ToLga. | 13 Eylül 2012 Perşembe 18:47
şarkının sondaki solosu ve gayet iyi tebrikler


Bu Yoruma Cevap Ver
Cedar | 07 Nisan 2011 Perşembe 14:43
şarkıdaki ara tabmı


Bu Yoruma Cevap Ver
asdsad2 | 20 Mart 2011 Pazar 16:45


Siz de Görüş Bildirin

Yorum yazma alanı Akor Merkezi üyelerine özel bir bölümdür. (Giriş Yap / Üye Ol / Şifremi Hatırlat)


PAYLAŞ

Reklam



Anket
özqeren soruyor:
Grup 84 Ün 'azap' Şarkısını Nasıl Buluyorsunuz?









Sonuçlar | Sonuçlar & Yorumlar
Yeni Anket | Anketler




Reklam


Radyo Dinle
AkorMerkezi.com © 2014
İletişim - Gizlilik Politikası - Kullanım Koşulları - Kurallar - Son Yorumlar - Rastgele

GitarAkor.com kolonisidir. Derleme 0,07 saniye.