Akor Tab Söz Çeviri Anasayfası
Akor|Tab|Söz|Nota Arşivi
Gitar Akorları | Tab,Söz ve Nota Anasayfası | En Yeni Şarkılar | En Popüler Şarkılar | Akor Cetveli

Bilgiler
 
Seslendiren ve Şarkı: Barış Manço - Gülpembe
Biçim: TAB - INTRO
Tarih: 27 Kasım 2007 Salı
Gönderen: SilentEaGle
Toplam Okuyan: 110.645 kişi
Bu Ay Okuyan: 2.186 kişi
Bu Hafta Okuyan: 10 kişi
 
Beğendiniz mi? Gülpembe Tab sayfasını Şimdi paylaşın:
DİKKAT!
Gülpembe Tab sayfasını düzgün görüntüleyemiyor olabilirsiniz.
Eğer böyle bir sıkıntınız varsa tıklayın.

Barış Manço - Gülpembe - Tab

  (versiyon 2)
Puanlama:
 (44 kişi)

Gülpembe şarkısının diğer versiyonlarına bakın >>

Metin boyutu: ( + Büyült ) ( - Küçült)   
E|------------|-------|------------|----------|------------|-----|------------|       )
B|------------|-0-0-|------------|-----------|------------|-----|------------|       )      
G|------------|--2---|------------|-2-0-2--|------------|-0-0-|------------|       )  x2
D|-3-2-0-2--|-------|-3-2-0-2-|----------|-3-2-0-2--|--4---|-3-2-0-2--|       )
A|------------|-------|------------|----------|-----------|-------|-----------|       )  
E|------------|-------|------------|----------|------------|-------|----------|       )

E|-------------2---5-3-7-7-|
B|---0---3-0---3------------|
G|-----0----------------------|
D|-2--------------------------|
A|-----------------------------|
E|-----------------------------|

E|---7---7-8-7-5-7--------------------7-----------------------------------------------------------------------
-------| 
B|---------------------10-8-10-8-10---10----8-8-7-8-10-8-7-8--7-7---7-8----------------------------------|
G|-9------------------------------------------------------------------------9-------10-9-7--10-9-7--10-9-7-|
D|------------------------------------------------------------------------------------------------------------
------------|
A|------------------------------------------------------------------------------------------------------------
------------|
E|------------------------------------------------------------------------------------------------------------
------------|





ARA SOLO


E|---------|-------|-------|--------------------|  )
B|-8-7---|-8-7--|-8-7--|-10-8-7-7-------|  )
G|-----9-|-----9-|-----9-|--------------9-9-|  )  X2 
D|--------|--------|-------|--------------------|  )
A|--------|--------|-------|--------------------|  )
E|--------|--------|-------|--------------------|  )

E|-------------7----10-8-7----7-8-7-|    )
B|---7-8-10---10---------10---------|    )
G|-9-------------------------------------|    )   X2
D|----------------------------------------|    )
A|----------------------------------------|    )
E|----------------------------------------|    )         


E|------------------------------7----------------|
B|---7--8--10--8--7----7--8--10----10-8-7-8-7--|
G|-7--7--7---7-------7--7--7----------------------9|
D|-------------------------------------------------|
A|-------------------------------------------------|
E|-------------------------------------------------|


E|--------------7-----------10-8-7----7------------------|
B|---7--8--10---10-8-7-----------10--10-8-7-8-7---|
G|-7--7--7----------------------------------------------9-|
D|---------------------------------------------------------|
A|---------------------------------------------------------|
E|---------------------------------------------------------|


SilentEaGle Gururla Sunar :P

İnşallah Beyenirsiniz (İlk tab Paylaşımım)
Gülpembe Tab, AkorMerkezi.com'da yayınlanmıştır.
http://www.akormerkezi.com


İçerik Kısa Linki:


Beğendiniz mi? Gülpembe Tab sayfasını Şimdi paylaşın:


Gülpembe şarkısı için amatör kayıtları dinleyin: (Siz de Ekleyin)

Gülpembe Tab için Komoçotoko'dan Gelenler
Aramalar: gulpemde tabs, gük pembe tab, gül pembe gitar solo, Gül pembe solo, gülpelbe tabgülpelbe tabgülpelbe tab, Barış Manço - Gülpembe, gül pembe solo notaları, gülpembe gitar solo ntalar, baris manco gulpembe elektro gitar tab, gulpembe fab
Barış Manço - Gülpembe için Kullanıcı Görüşleri

11 Aralık 2013 Çarşamba tarihinde dbLoodb yazmıştı:
G)--------------4-2-4--------------2-0-2-
D)3-2-0-2---------------3-2-0-2-----------3-2-0-2---5-4-5

Olarak deneyin daha iyi oluyo :)
aynı şey oluyor kardeşim zaten ^^


Bu Yoruma Cevap Ver
yesyesyes | 28 Eylül 2014 Pazar 02:25
G)--------------4-2-4--------------2-0-2-
D)3-2-0-2---------------3-2-0-2-----------3-2-0-2---5-4-5

Olarak deneyin daha iyi oluyo :)


Bu Yoruma Cevap Ver
dbLoodb | 11 Aralık 2013 Çarşamba 20:19
intro bölümünden sonra berbat


Bu Yoruma Cevap Ver
DR. Oz! | 23 Eylül 2012 Pazar 17:47
tamamen doğru teşekkürler ^^


Bu Yoruma Cevap Ver
CanCeyhan07 | 18 Nisan 2012 Çarşamba 22:43
"/fck/editor/images/smiley/msn/thumbs_up.gif" alt=""/>


Bu Yoruma Cevap Ver
gitaristrh | 17 Ocak 2012 Salı 21:39
23 Aralık 2010 Perşembe tarihinde berkil yazmıştı:
Intro bölmünden sonra acayyip saçmalamışsın, Gülpembe'den başka her şeye benzemiş.

:)
katılıyorum sana arkadaşım


Bu Yoruma Cevap Ver
Esesligitarist | 11 Temmuz 2011 Pazartesi 19:11
Kusra bakma önceki yorumumda ben saçmalamışım güzel olmuş o zaman çalamadığım için öyle yazmıştım.Herkesten özür diliyorum.


Bu Yoruma Cevap Ver
berkil | 24 Haziran 2011 Cuma 08:29
bence introda perdeler bi üste kaymış :)


Bu Yoruma Cevap Ver
Ayse Sewm | 24 Ocak 2011 Pazartesi 20:29
Intro bölmünden sonra acayyip saçmalamışsın, Gülpembe'den başka her şeye benzemiş.

:)


Bu Yoruma Cevap Ver
berkil | 23 Aralık 2010 Perşembe 07:07
Perdelerde kayma yok


Bu Yoruma Cevap Ver
qaryzma | 05 Ağustos 2010 Perşembe 19:16
güzel kardesım eline saglık


Bu Yoruma Cevap Ver
Cash. | 17 Nisan 2010 Cumartesi 16:32
bence çok basit


Bu Yoruma Cevap Ver
sistemali | 12 Nisan 2010 Pazartesi 17:54
çok güzel çıkarmışsın eline sağlık perdelerin kaymasına rağmen çalınca çok güzel oluyor


Bu Yoruma Cevap Ver
gitarcıkiz | 06 Şubat 2009 Cuma 13:42
arkadaş bu ne ya çok zor bu ya ben daha gitara yeni başladım zaten yoq kalsın bn nburaya bi 2 yıl sonra bakimm :)) xDxDxD


Bu Yoruma Cevap Ver
gatto_lacrima | 28 Ocak 2009 Çarşamba 10:02
perdeler evet kaymış biraz ama g&uuml;zel olmuş ellerine sağlık<br/>


Bu Yoruma Cevap Ver
serhan181 | 30 Eylül 2008 Salı 20:01
<p>g&uuml;sel olmuş yhaa eline sağlık teşekk&uuml;rler...</p>


Bu Yoruma Cevap Ver
THE HORRORS | 13 Temmuz 2008 Pazar 13:48
valla kulağa güzel geliyor eline sağlık


Bu Yoruma Cevap Ver
opklhfvnmd3 | 29 Kasım 2007 Perşembe 20:06
Perdeler kaymış :S


Bu Yoruma Cevap Ver
SilentEaGle | 27 Kasım 2007 Salı 22:16


Siz de Görüş Bildirin

Yorum yazma alanı Akor Merkezi üyelerine özel bir bölümdür. (Giriş Yap / Üye Ol / Şifremi Hatırlat)


PAYLAŞ

Reklam



Anket
Dionysus soruyor:
Sizlere göre dünyadaki rock gruplarından hangisi rock müzğinin gelişiminde etkili olmuştur










Sonuçlar | Sonuçlar & Yorumlar
Yeni Anket | Anketler






Radyo Dinle
AkorMerkezi.com © 2014
İletişim - Gizlilik Politikası - Kullanım Koşulları - Kurallar - Son Yorumlar - Rastgele

GitarAkor.com kolonisidir. Derleme 0,06 saniye.