Akor Tab Söz Çeviri Anasayfası
Akor|Tab|Söz|Nota Arşivi
Gitar Akorları | Tab,Söz ve Nota Anasayfası | En Yeni Şarkılar | En Popüler Şarkılar | Akor Cetveli

Bilgiler
 
Seslendiren ve Şarkı: Berker - Gül Bakışlım
Biçim: TAB - HİÇBİRİ
Tarih: 29 Haziran 2008 Pazar
Gönderen: dr_hayalperest
Toplam Okuyan: 30.548 kişi
Bu Ay Okuyan: 382 kişi
Bu Hafta Okuyan: 42 kişi
 
Beğendiniz mi? Gül Bakışlım Tab sayfasını Şimdi paylaşın:

Berker - Gül Bakışlım - Tab


Puanlama:
 (15 kişi)

Gül Bakışlım şarkısının diğer versiyonlarına bakın >>

Metin boyutu: ( + Büyült ) ( - Küçült)   

E|---0-7-7-7---7-8-8-7---7-5-5-3-5----------------|
B|---------------------------------------------------|
G|---------------------------------------------------|
D|---------------------------------------------------|
A|---------------------------------------------------|
E|---------------------------------------------------|

E|---3-5-5-5---5-10-10-8-8-7-7-5-3----------------|
B|---------------------------------------------------|
G|---------------------------------------------------|
D|---------------------------------------------------|
A|---------------------------------------------------|
E|---------------------------------------------------|

E|---2-3-3-3---2-3-5-3-3-2-2-0-0------------------|
B|---------------------------------------------------|
G|---------------------------------------------------|
D|---------------------------------------------------|
A|---------------------------------------------------|
E|---------------------------------------------------|

E|---2-3-3-2-2-0-0--------------------------------|
B|---------------------------------------------------|
G|---------------------------------------------------|
D|---------------------------------------------------|
A|---------------------------------------------------|
E|---------------------------------------------------|


not:katkılarından dolayı üyelerimizden Alemlerin_Seyyahı'na teşekkürler :)

Gül Bakışlım Tab, AkorMerkezi.com'da yayınlanmıştır.
http://www.akormerkezi.com


İçerik Kısa Linki:


Beğendiniz mi? Gül Bakışlım Tab sayfasını Şimdi paylaşın:



Gül Bakışlım Tab için Komoçotoko'dan Gelenler
Aramalar: gül teninden akor ve arpej, gül bakışlım nota gitar la mi mi, Gul bakışlım gitar akorları, gül bakışlım gitar akort, gülteninde tab, gül teninde akorları, gül teninde tab, gül bakışlım gitar notalar, gül teninden oyalanıp süzülde gel udla nota, gülteninden oyalanıp süzülde gel tab
Berker - Gül Bakışlım için Kullanıcı Görüşleri

La Gamı üzerinden ayrıntılı şekilde yazdım..Versiyon 3 e bakınız....


Bu Yoruma Cevap Ver
m_ege1986 | 21 Mayıs 2011 Cumartesi 14:18
e)-0-7-7-7-7-8-8-7-7-5-3-5
gül teninden oyalanıp süzülde gel

e)3-5-5-5-5-10-10-5-5-3-2-3
gül bakışlım gözyaşların silip de gel

e)2-3-3-3-3-5-5-3-3-2-0-2
yaram sızlar yalnızlığım bilipte gel

e)0-2-2-2-0 (0-0-0-0-0-0)
gül bakışlım gel (ara geçiş)


e)0-7-7-7-7-8-8-7-7-5-5-3-5
ay büyüdü gecelerce seni bekledim

e)3-5-5-5-5-10-10-5-5-3-3-2-3
ak gerdanda gül kokulu tenini özlerim

e)2-3-3-3-3-3-5-5-3-3-2-2-0-2
çare bilmez dertlerimle yolun gözlerim

e)0-2-2-2-------------
b)--------0-----------
gül bakışlım gel
bn ble buldum :)


Bu Yoruma Cevap Ver
yeahmanyeah | 11 Mayıs 2011 Çarşamba 20:54
29 Haziran 2008 Pazar tarihinde AlemlernSeyyahı yazmıştı:
daha bakmadım hepsi doğru mu diye.rica ederim  başarılarının devamını dilerim.nice güzel çalışmalara
-----0---0---0---|---0---1--1--0---0-----------|------------------|----3--3------------------|-----------------|
-------------------|-------------------3---3---1|--3--1--3--3--3|--3-------3--3--1--1--0-|--1--0--1--1--1|
--2----------------|------------------------------|-----------------|---------------------------|------------------|

---------------------------|---------------------------------------|
--0--1--3-0-0-----------|--------0---1-1--0---0-----------------|
------------------2--2--0|--0--------------------------2---|


Bu Yoruma Cevap Ver
rock | 09 Aralık 2009 Çarşamba 18:56
hepsini çalmadım ama başı güzel tşk


Bu Yoruma Cevap Ver
serpiil | 05 Eylül 2009 Cumartesi 12:17
03 Ağustos 2009 Pazartesi tarihinde m_ege1986 yazmıştı:
yanlış.... tam değil...mi başlangıç ses alın...la gamı üzerinden çalın.. ;)
.....7 7 77 88 7 7 55...5...5555 10 10 ..............................................
...5.................... 8.. 8 ..............................


gerisini çalın..la gamı üzerinden... kulağınızı geliştirin ;)


Bu Yoruma Cevap Ver
m_ege1986 | 03 Ağustos 2009 Pazartesi 12:46
yanlış.... tam değil...mi başlangıç ses alın...la gamı üzerinden çalın.. ;)


Bu Yoruma Cevap Ver
m_ege1986 | 03 Ağustos 2009 Pazartesi 12:44
-----0---0---0---|---0---1--1--0---0-----------|------------------|----3--3------------------|-----------------|
-------------------|-------------------3---3---1|--3--1--3--3--3|--3-------3--3--1--1--0-|--1--0--1--1--1|
--2----------------|------------------------------|-----------------|---------------------------|------------------|

------------------------|---------------------------------------|----------------------|
--0--1--0--0----------|--------0---1---0--------------------|-----------------------|
----------------2--2--0|--0--------------------2---2---2---0|---2---3---2---0---2|


Bu Yoruma Cevap Ver
HyPnose86 | 15 Haziran 2009 Pazartesi 16:38
evt bencede tek telden çalınmıo ses güsel çıkmıo yinede tşkler


Bu Yoruma Cevap Ver
oneofcasanova | 22 Şubat 2009 Pazar 13:38
bilader güzel olmuşda bu tek telden çalınmaz ki saz gibi


Bu Yoruma Cevap Ver
rock fly | 10 Ocak 2009 Cumartesi 13:20
gzl olmuş


Bu Yoruma Cevap Ver
r3aLMaRDIN | 08 Ocak 2009 Perşembe 16:19
teşekkür ederim çok aradığım bir parçaydı


Bu Yoruma Cevap Ver
candy8803 | 03 Ocak 2009 Cumartesi 19:09
ben hepsini cıkardım beyler ugrasın cıkar


Bu Yoruma Cevap Ver
Quuen | 10 Kasım 2008 Pazartesi 21:53
5/10 10 10/5 5 3 3 2 3 notaların vurusları farklı slide! dan sonrasını sız ayarlayın ama tek telden calmayın sızde cıkarabılırsınız eb den caldım..e den calanlar ıcın belkı sorun olabılır ama dogru ıyı eglenceler


Bu Yoruma Cevap Ver
Leta | 31 Ekim 2008 Cuma 18:08
2. bölüm biraz bozuk gibi sanki,, ama emeğine sağlık:)


Bu Yoruma Cevap Ver
garces | 30 Ağustos 2008 Cumartesi 21:16
eline saglık  2 bölümün sonları olmamış tşk


Bu Yoruma Cevap Ver
gitarist05 | 11 Ağustos 2008 Pazartesi 12:22
ilk bölümü cıkardım ama digerleri olmadı"/fck/editor/images/smiley/msn/sad_smile.gif" alt=""/>


Bu Yoruma Cevap Ver
boncuk 32 | 03 Ağustos 2008 Pazar 12:15
sadece iLk böLüm doğru 2. bölümün sonunda yanlışlık başlıyor ve sürüyor..yine de emeğine sağlık..



Bu Yoruma Cevap Ver
#hKnHsYn# | 08 Temmuz 2008 Salı 11:59
fena çalışma olmamış emeğine sağlık arkadaşların istediğiniz tab olursa bana yazın yapıım hemen orj tonda.. paylaşalım güzeldir


Bu Yoruma Cevap Ver
GÖKHANEMRE | 05 Temmuz 2008 Cumartesi 00:46
yoo bence yok


Bu Yoruma Cevap Ver
özgünasi | 01 Temmuz 2008 Salı 19:48
2. kısımda sanki yanlışlık war:S


Bu Yoruma Cevap Ver
rapselans | 29 Haziran 2008 Pazar 22:46
daha bakmadım hepsi doğru mu diye.rica ederim  başarılarının devamını dilerim.nice güzel çalışmalara


Bu Yoruma Cevap Ver
AlemlernSeyyahı | 29 Haziran 2008 Pazar 12:03


Siz de Görüş Bildirin

Yorum yazma alanı Akor Merkezi üyelerine özel bir bölümdür. (Giriş Yap / Üye Ol / Şifremi Hatırlat)


PAYLAŞ

Reklam



Anket
fransemanu soruyor:
Sizce En İyisi Hangisi?













Sonuçlar | Sonuçlar & Yorumlar
Yeni Anket | Anketler




Reklam


Radyo Dinle
AkorMerkezi.com © 2014
İletişim - Gizlilik Politikası - Kullanım Koşulları - Kurallar - Son Yorumlar - Rastgele

GitarAkor.com kolonisidir. Derleme 0,08 saniye.