Akor Tab Söz Çeviri Anasayfası
Akor|Tab|Söz|Nota Arşivi
Gitar Akorları | Tab,Söz ve Nota Anasayfası | En Yeni Şarkılar | En Popüler Şarkılar | Akor Cetveli

Bilgiler
 
Seslendiren ve Şarkı: Beşiktaş - O Kız Seni Sevmesede Farketmez
Biçim: TAB - SOLO
Tarih: 12 Ağustos 2009 Çarşamba
Gönderen: Roq
Toplam Okuyan: 18.988 kişi
Bu Ay Okuyan: 183 kişi
Bu Hafta Okuyan: 52 kişi
 
Beğendiniz mi? O Kız Seni Sevmesede Farketmez Tab sayfasını Şimdi paylaşın:

Beşiktaş - O Kız Seni Sevmesede Farketmez - Tab


Puanlama:
 (40 kişi)


Metin boyutu: ( + Büyült ) ( - Küçült)   
Dün Gece Bekledim Seni Evinin Önünde
Görmek İstedim Son Bir kere
Vedalaşıp gidecektim askere


e--6-5-3--3-5-6666-5-3-5-3-1-1-3--5555-3-1-3-1-0--0-1-3333-1-0-1-0-
b------------------------------------------------------------------3

Çıkmadın benim için pencereye çıkmadın
Bir kez olsun gözlerime bakmadın
Her nedense sen beni hiç takmadın


e--6-5-3--3-5-6666-5-3-5-3-1-1-3--5555-3-1-3-1-0--0-1-3333-1-0-1-0-
b------------------------------------------------------------------3

Farketmez Okız seni sevmesede farketmez
O kız sana bakmasada farketmez
Kardeşlerin seni asla terketmez


e--6-5-3--3-5-6666-5-3-5-3-1-1-3--5555-3-1-3-1-0--0-1-3333-1-0-1-0-
b------------------------------------------------------------------3

Su Meşhur Tezahuratın Gitar Solosunu Cıkardım Umarm Begenirsiniz Can Sıkıntısı İşte :)
O Kız Seni Sevmesede Farketmez Tab, AkorMerkezi.com'da yayınlanmıştır.
http://www.akormerkezi.com


İçerik Kısa Linki:


Beğendiniz mi? O Kız Seni Sevmesede Farketmez Tab sayfasını Şimdi paylaşın:


O Kız Seni Sevmesede Farketmez Tab için Komoçotoko'dan Gelenler
Aramalar: beşiktaş marşını söyleyen kızlar, beşiktaş marş tab, beşiktaş+marşı+tab, farketmez mars sozleri, farketmez o'kız seni sevmesede şarkı cevap, besiktas farketmez şarkı sözleri, farketmeden tab akor, O kız seni sevmese de farketmez szöleri, besıktas marsı bekledım evının onunde, fareketmez kiz sevmesede fark etmez sozleri
Beşiktaş - O Kız Seni Sevmesede Farketmez için Kullanıcı Görüşleri

Woow Ellerine sağlık.


Bu Yoruma Cevap Ver
SerdarThomas | 31 Mayıs 2014 Cumartesi 19:15
ellerinize kollarınıza yüreğinize sağlık ... (:

çArşı !


Bu Yoruma Cevap Ver
carsi_kral | 03 Mayıs 2011 Salı 09:27
Beşiktaşlılık işte bu super eline saglık


Bu Yoruma Cevap Ver
Crazy Giutar | 23 Ağustos 2010 Pazartesi 16:53
Akor olaraak ta Bm A G F# olur gıbı nakarata.. (:


Bu Yoruma Cevap Ver
TopalAhTaPoT | 11 Ekim 2009 Pazar 01:04
beşiktaşlı olarak çok hoşuma gitti saolasın ..


Bu Yoruma Cevap Ver
DieselTRoniC | 10 Eylül 2009 Perşembe 21:20
arkadaşlar bunu bide 10. perdede deneyin ozaman şampiyon olacağız ... marşıoluyo bu biraz kalın ama arkadaşın eline salık


Bu Yoruma Cevap Ver
paradise1988 | 01 Eylül 2009 Salı 15:00
senın bu paylasımını caldıktan sonra bende bunu cıkardım kardes bıraz benzedı gerısınıde ben kurcaladım boyle bıse cıktı umarım begenırsınız


Bu Yoruma Cevap Ver
__A_Y_Z_E_K__ | 22 Ağustos 2009 Cumartesi 07:00
tek telden solo

b--10-9-7-7-9-10-10-9-10-9-7---9-7-5-5-7-9-9-7-9-7-5---7-5-3-3-5-7-7-5-7-5-3-
--5-3-2-2-3-5-5-3-5-3-2

normal solo

e------------------------------------------------------------------------------------
b--10-9-7--7-9-10--10-9-10-9-7-------------------------------------------------------
g------------------------------------------------------------------------------------

e------------------------------------------------------------------------------------
b--9-7---7-9--9-7-9-7---7--------7-7-7-----------------------------------------------
g-----9-9------------9---9-7--7-9---9-9-7--------------------------------------------

e------------------------------------------------------------------------------------
b--9-7-6--6-7-9--9-7-9-7-6-----------------------------------------------------------
g------------------------------------------------------------------------------------


Üzgünüm sevgilim anlaşamadık
Siyah beyaz aşkı paylaşamadık
İşte böyle birşey Beşiktaşlılık
Deplasmanda dersin soran olursa


Bu Yoruma Cevap Ver
__A_Y_Z_E_K__ | 22 Ağustos 2009 Cumartesi 06:58
arkadasım tamam guzel de ben bunu bıraz hızlı caldım besıktasın uzgunum sevgılım anlasamadık sıyah beyaz askı paylasamadık ona cok benzıo hatta bıraz kurcaladım cıkardım onunda tabını eklıcem bırazdan ılgınc ılk basta dıcektım yanlıs marsa koymus dıe ama yavas calınca bole bıraz hızlandırınca benım dedıgıme benzıo :)) elıne kulagına saglık bende eklıcem oburunu


Bu Yoruma Cevap Ver
__A_Y_Z_E_K__ | 22 Ağustos 2009 Cumartesi 06:04
Ellerine sağlık bende bunu arıodum


Bu Yoruma Cevap Ver
the_walky | 16 Ağustos 2009 Pazar 16:43


Siz de Görüş Bildirin

Yorum yazma alanı Akor Merkezi üyelerine özel bir bölümdür. (Giriş Yap / Üye Ol / Şifremi Hatırlat)


PAYLAŞ

Reklam



Anket
marineriders soruyor:
Rock mı Rap mi ?







Sonuçlar | Sonuçlar & Yorumlar
Yeni Anket | Anketler




Reklam


Radyo Dinle
AkorMerkezi.com © 2014
İletişim - Gizlilik Politikası - Kullanım Koşulları - Kurallar - Son Yorumlar - Rastgele

GitarAkor.com kolonisidir. Derleme 0,05 saniye.