Akor Tab Söz Çeviri Anasayfası
Akor|Tab|Söz|Nota Arşivi
Gitar Akorları | Tab,Söz ve Nota Anasayfası | En Yeni Şarkılar | En Popüler Şarkılar | Akor Cetveli

Bilgiler
 
Seslendiren ve Şarkı: Cem Özkan - Dön Bana
Biçim: TAB - HİÇBİRİ
Tarih: 12 Kasım 2007 Pazartesi
Gönderen: brknnrtkn
Toplam Okuyan: 38.168 kişi
Bu Ay Okuyan: 1.036 kişi
Bu Hafta Okuyan: 45 kişi
 
Beğendiniz mi? Dön Bana Tab sayfasını Şimdi paylaşın:

Cem Özkan - Dön Bana - Tab


Puanlama:
 (14 kişi)

Dön Bana şarkısının diğer versiyonlarına bakın >>

Metin boyutu: ( + Büyült ) ( - Küçült)   
e|--------------------------------------------------------------------------
B|--------------------------------------------------------------------------
G|-4/5--4-5-4---2-4-2---0/2-0----4/5--4-5-4---2-4-2---0/2-0-----------------
D|--------------------------------------------------------------------------
A|--------------------------------------------------------------------------
E|--------------------------------------------------------------------------

e|--------------------------------------------------------------------------
B|--------------------------------------------------------------------------
G|-11/12---9-10-9--7-9---------11/12---9-10-9-9---7-7-7---5-5-5---7-7-7-----
D|--------------------------------------------------------------------------
A|--------------------------------------------------------------------------
E|--------------------------------------------------------------------------


         Farklı Bir Versiyon

e|--------------------------------------------------------------------------
B|--------------------------------------------------------------------------
G|-4/5--4-5-4---2-4-2---0/2-0----4/5--4-5-4---2-4-2---0/2-0-----------------
D|--------------------------------------------------------------------------
A|--------------------------------------------------------------------------
E|--------------------------------------------------------------------------
           
e|--------------------------------------------------------------------------
B|--------------------------------------------------------------------------
G|--------------------------------------------------------------------------
D|-4/5--2-3-2--0-2---5--2/3/2--0-2-2----------------------------------------
A|------------------------------------5-5-5--3-3-3-2-2-2--------------------
E|--------------------------------------------------------------------------





  Üzülürüm yine resmini görünce maziye bakarak
e|-5---|---3---|-5---|---3----|-1---|-3---|-------|  
B|--6--|---3---|-5---|---3----|-1---|-3---|-1-----|
G|---7-|----4--|--6--|----4---|--2--|--4--|-------|  
D|---7-|-----5-|---7-|-----5--|---3-|---5-|---2---|   
A|-5---|-----5-|---7-|-----5--|---3-|---5-|----3--|   
E|-----|---3---|-5---|---3----|-1---|-3---|-------|   


 Vazgeçemem senden bi ömür geçse böyle
e|-5---|-----3---|-5---|----3-------|  
B|--6--|-----3---|-5---|----3-------|
G|---7-|------4--|--6--|-----4------|  
D|---7-|-------5-|---7-|------5-----|   
A|-5---|-------5-|---7-|------5-----|   
E|-----|-----3---|-5---|----3-------|


  Ardından   yalvararak
e|-1---|-3---|-------|
B|-1---|-3---|-1-----|
G|--2--|--4--|-------|
D|---3-|---5-|---2---|
A|---3-|---5-|----3--|
E|-1---|-3---|-------|


Am   Em       F      C
Dön bana yeniden n'olur
Am   Em      F      C
Sev beni yeniden n'olur
Am   Em     F     C
Al beni yanına n'olur
Am    Em      F     C
Dön bana yeniden n'olur
 G        c   G  C
Nolur   nolur


Unuturum sandım zamana bırakınca Seni nasıl sevdigimi
e|-5---|---3---|-5---|---3----|-1---|-3---|--------|  
B|--6--|---3---|-5---|---3----|-1---|-3---|--1-----|
G|---7-|----4--|--6--|----4---|--2--|--4--|--------|  
D|---7-|-----5-|---7-|-----5--|---3-|---5-|----2---|   
A|-5---|-----5-|---7-|-----5--|---3-|---5-|-----3--|   
E|-----|---3---|-5---|---3----|-1---|-3---|--------|   


 Ama bugün yine söylüyorum hep aynı hep aynı  şeyi
e|-5---|---3---|-5----|----3---|----1---|-3---|--------|  
B|--6--|---3---|-5----|----3---|----1---|-3---|--1-----|
G|---7-|----4--|--6---|-----4--|-----2--|--4--|--------|  
D|---7-|-----5-|---7--|------5-|------3-|---5-|----2---|   
A|-5---|-----5-|---7--|------5-|------3-|---5-|-----3--|   
E|-----|---3---|-5----|----3---|----1---|-3---|--------|


Am   Em       F      C
Dön bana yeniden n'olur
Am   Em      F      C
Sev beni yeniden n'olur
Am   Em     F     C
Al beni yanına n'olur
Am    Em      F     C
Dön bana yeniden n'olur
 G        c   G  C
Nolur   nolur


SOLODAN SONRA TEKRAR


Am   Em       F      C
Dön bana yeniden n'olur
Am   Em      F      C
Sev beni yeniden n'olur
Am   Em     F     C
Al beni yanına n'olur
Am    Em      F     C
Dön bana yeniden n'olur
 G        c   
Nolur   nolur
 G        c   
Nolurrr   nolur..
Dön Bana Tab, AkorMerkezi.com'da yayınlanmıştır.
http://www.akormerkezi.com


İçerik Kısa Linki:


Beğendiniz mi? Dön Bana Tab sayfasını Şimdi paylaşın:



Dön Bana Tab için Komoçotoko'dan Gelenler
Aramalar: dön bana taqb, resmini görünce, cem ozkan don bana arpej, tab don bana hande yener, dön bana akor akustik, dön bana yeniden gitar nota, dön bana nolur akor, dön bana cem özkan akor, dönbana akor ritim, don bana gitar solo
Cem Özkan - Dön Bana için Kullanıcı Görüşleri

berbaat


Bu Yoruma Cevap Ver
rock_egirl | 13 Kasım 2011 Pazar 13:41
mi telinde

-8 7-8 7 7-8 5 3-5 3 )2x

-15 12-13 12 10 12 -15 12-13 10 12 10 12

- lar slide


Bu Yoruma Cevap Ver
tehlikelicocuk | 01 Ağustos 2011 Pazartesi 20:11
intro rezalet


Bu Yoruma Cevap Ver
tehlikelicocuk | 01 Ağustos 2011 Pazartesi 20:07
G|-4/5-- aradaki slaş ne anlama gelio 4/5 ne demek ?


Bu Yoruma Cevap Ver
NefrA | 05 Temmuz 2011 Salı 11:47
akorlar % de 100 doğru , emeğine sağlık sağol ..


Bu Yoruma Cevap Ver
emoxM | 06 Haziran 2010 Pazar 15:54
üzülürüm yine RESMİNİ kısımlarında la majör değil minor olucak 577555 yani


Bu Yoruma Cevap Ver
pettifogger | 22 Nisan 2010 Perşembe 00:17
Arkadaslar ... Lutfen Su Ritim İsteyen Arkadasları Hor Gormeyelim Hic Birimiz Dogustan Ogrenmedik ...
Bende Daha Yeniyim Ritim Cıkartmada Sorunum Yok Bunun İcin Elimden Geldigince yardımcı olmaya calısıyorum sonucta insanların sevkini kırmayalım . Hee Eger Ritim Arıyorsanız Dön Bana-Akor kısmındaki Yorumlara Bakın Orada Vermis bi kac kisi.


Bu Yoruma Cevap Ver
MeLq | 09 Ocak 2010 Cumartesi 23:58
bana bunun rtmin verirmisiniz
lutfen


Bu Yoruma Cevap Ver
dostu | 16 Kasım 2009 Pazartesi 20:11
01 Ağustos 2009 Cumartesi tarihinde brknnrtkn yazmıştı:
Arkadaşlar zaten videolarındada izleyin yada canlı performanslarda kulakla bakın o zaman orjinal oldugunu görürsünüz.
kardeşim çıkarta bilirsen 3.12 den sonraki soloyu çıkartır mısın ?


Bu Yoruma Cevap Ver
kal_851 | 06 Eylül 2009 Pazar 21:30
Arkadaşlar zaten videolarındada izleyin yada canlı performanslarda kulakla bakın o zaman orjinal oldugunu görürsünüz.


Bu Yoruma Cevap Ver
brknnrtkn | 01 Ağustos 2009 Cumartesi 04:10
Ritminide Yazarmsnıız


Bu Yoruma Cevap Ver
umbar | 20 Temmuz 2009 Pazartesi 16:50
solo kısmı garıp sankı bencede


Bu Yoruma Cevap Ver
tarıkkkk | 06 Temmuz 2009 Pazartesi 22:36
bence bu böyle:

D/-10-10-9---9-10-7---7-5-7-5---3-5-5---3-2-3-2


Bu Yoruma Cevap Ver
can yavuz | 05 Eylül 2008 Cuma 22:08
solo kısmında bir gariplik var sanki.


Bu Yoruma Cevap Ver
butperest | 16 Kasım 2007 Cuma 16:15
arkadasım hersey guzel olmus elıne salık amasolo tabını yazarken tek tel uzerınden gıdıcegıne dıger tellerede atlasaydın daha ıyı olurdu en azından tek telde delı dumrul gıbı gezmezdık bıde sozlerın oldugu kısımda la major yapmıssın la mınor daha hos duruyo


Bu Yoruma Cevap Ver
grinch_18 | 15 Kasım 2007 Perşembe 22:44


Siz de Görüş Bildirin

Yorum yazma alanı Akor Merkezi üyelerine özel bir bölümdür. (Giriş Yap / Üye Ol / Şifremi Hatırlat)


PAYLAŞ

Reklam



Anket
alper71 soruyor:
Murat Çelik'in En Beğendiğiniz Parçası Hangisidir?












Sonuçlar | Sonuçlar & Yorumlar
Yeni Anket | Anketler




Reklam


Radyo Dinle
AkorMerkezi.com © 2014
İletişim - Gizlilik Politikası - Kullanım Koşulları - Kurallar - Son Yorumlar - Rastgele

GitarAkor.com kolonisidir. Derleme 0,08 saniye.