Akor Tab Söz Çeviri Anasayfası
Akor|Tab|Söz|Nota Arşivi
Gitar Akorları | Tab,Söz ve Nota Anasayfası | En Yeni Şarkılar | En Popüler Şarkılar | Akor Cetveli

Bilgiler
 
Seslendiren ve Şarkı: Çilekeş - Kendimden Geriye
Biçim: TAB -
Tarih: 03 Şubat 2006 Cuma
Gönderen: allyouneed
Toplam Okuyan: 7.067 kişi
Bu Ay Okuyan: 71 kişi
Bu Hafta Okuyan: 3 kişi
 
Beğendiniz mi? Kendimden Geriye Tab sayfasını Şimdi paylaşın:

Çilekeş - Kendimden Geriye - Tab


Puanlama:
 (2 kişi)

Kendimden Geriye şarkısının diğer versiyonlarına bakın >>

Metin boyutu: ( + Büyült ) ( - Küçült)   
Şimdi ilk önce bi bütün teller yarım ton aşağıya alın heh....bir de en üst tel c# e alın 
herşeyi doğru yaptıysanız teller şu şekilde olacak...(yukardan aşağıya)

c#-g#-c#-f#-a#-d#

evet şimdi girişin tam doğru düzgün olması için de 0.40 mono delay (clean tone olacak) a 
alın pedalınızı veya prosesörünüzü artık hangisiyse ...başlayabiliriz!!!


GİRİŞ


c#---------------------------------------------------------
g#---------------------------------------------------------
c#---------------------------------------------------------
f#------7----------5-------------7---------5---------------
a#--------5--6--5------8--5-6------5--6--5----8--6--5------
d#---------------------------------------------------------


1.gitar

c#--0-0-0-0--7-7-7-7-8-8-8-8-7-7-7-7-10-10--10-s-3-3-3-2-3-2-0------------             
g#--0-0-0-0--7-7-7-7-8-8-8-8-7-7-7-7-10-10--10-s-3-3-3-2-3-2-0------------
c#------------------------------------------------------------------------
f#------------------------------------------------------------------------
a#------------------------------------------------------------------------
d#------------------------------------------------------------------------



2.gitar

c#------------------------------------------------------------------------
g#---8--8--8--8--8--8---8--8--8--7-7-7-s--12-12-12-s-13-s-12-12-----------
c#------------------------------------------------------------------------
f#---10-10-10-10-10-10--10-10-10-9-9-9-s--14-14-14-s-15-s-14-14-----------
a#------------------------------------------------------------------------
d#------------------------------------------------------------------------

GİRİŞİN SON BÖLÜMÜ
                                                  ölürken diye başlıyor burda hemen
c#---5--7--8--8--8--8s7---10-10-10-10s11-11-11--12----------------
g#---5--7--8--8--8--8s7---10-10-10-10s11-11-11--12----------------
c#----------------------------------------------------------------
f#----------------------------------------------------------------
a#----------------------------------------------------------------
d#-10-------------------------------------------------------------


SÖZLER

 Ölürken   bile   yanımda  ol  sevgilim 

c#--12-----12---------12---------12-------8--8---8s10--8s10---10s12-----
g#--12-----12---------12---------12-------8--8---8s10--8s10---10s12-----
c#----------------------------------------------------------------------
f#----------------------------------------------------------------------
a#----------------------------------------------------------------------
d#----------------------------------------------------------------------

 Cennet bile çekilmez sensiz ah ben neyleyim

c#--12--12---12---12----8----10------12---------------------------------
g#--12--12---12---12----8----10------12---------------------------------
c#----------------------------------------------------------------------
f#----------------------------------------------------------------------
a#----------------------------------------------------------------------
d#----------------------------------------------------------------------


NAKARAT

                           her şey yalan herkes sahtekar...
                              
c#--0-0-0-0--7-7-7-7-8-8-8-8-7-7-7-7-10-10--10-s-3-3-3-2-3-2-0------------             
g#--0-0-0-0--7-7-7-7-8-8-8-8-7-7-7-7-10-10--10-s-3-3-3-2-3-2-0------------
c#------------------------------------------------------------------------
f#------------------------------------------------------------------------
a#------------------------------------------------------------------------
d#------------------------------------------------------------------------

2. gitar burda yine girişin aynısını yapıyor yazmadım kalabalık olmasın diye :)..



                            giden gitti kalan hep bin pişman
c#--0-0-0-0--7-7-7-7-8-8-8-8-7-7-7-7-10-10--10-s-3-3-3-2-3-2-0------------             
g#--0-0-0-0--7-7-7-7-8-8-8-8-7-7-7-7-10-10--10-s-3-3-3-2-3-2-0------------
c#------------------------------------------------------------------------
f#------------------------------------------------------------------------
a#------------------------------------------------------------------------
d#------------------------------------------------------------------------



                            herkes  düşman    herkes    ziyankar      
c#--0-0-0-0--7-7-7-7-8-8-8-8-7-7-7-7-10-10--10-s-3-3-3-2-3-2-0------------             
g#--0-0-0-0--7-7-7-7-8-8-8-8-7-7-7-7-10-10--10-s-3-3-3-2-3-2-0------------
c#------------------------------------------------------------------------
f#------------------------------------------------------------------------
a#------------------------------------------------------------------------
d#-------------------------------------------------------------10---------

       bir   tek     sen    kaldın       yanımda
c#---5--7--8--8--8--8s7---10-10-10-10s11-11-11--12----------------
g#---5--7--8--8--8--8s7---10-10-10-10s11-11-11--12----------------
c#----------------------------------------------------------------
f#----------------------------------------------------------------
a#----------------------------------------------------------------
d#----------------------------------------------------------------



Yine ikinci bölüm de birinci sözler bölümünün aynısı nakarat da aynı daha sonra...
yalnız soloya geçerken şu bölüm var...

     Mutlu gibi umutlu gibi (ayarlarsınız kendiniz zamanlamayı)

c#-----------------------------------------------
g#--7-7-7-7-7-8--8--8--8--7-7-7-7s10-10-10-10----
c#-----------------------------------------------    x4 
f#--9-9-9-9-9-10-10-10-10-9-9-9-9s12-12-12-10----
a#-----------------------------------------------
d#-----------------------------------------------


ŞİMDİ SOLO VAR 

bu solo kolay arkadaşlar aslında en üst telde 12-13-12-10-12 diye başlıyor şimdi yoruldum 
daha sonra ekleyeceğim buraya takip edin!!



bundan sonrası nakarat kısmı zaten aynı....


not:çilekeşin gitarist ali bunu tek başına çalıyor genelde.nakarat da girişte falan hep 
birinci gitarın çaldığını çalıyor gayet de güzel oluyor!!!...siz bilirsiniz isterseniz 
çift gitar çalın...

2.not: zamanlamaları sözlerle tam vermedim uğraşmadım halledersiniz artık kendiniz...soloyu
 bugün yazmaya üşendim yarın öbür gün yazarım mutlaka...tabımın doğru olduğu inancındayım 
inanmazsanız açıp şarkıyla beraber çalın :)...kolay gelsin



a
MERT HAMARATGİL
Kendimden Geriye Tab, AkorMerkezi.com'da yayınlanmıştır.
http://www.akormerkezi.com


İçerik Kısa Linki:


Beğendiniz mi? Kendimden Geriye Tab sayfasını Şimdi paylaşın:


Kendimden Geriye Tab için Komoçotoko'dan Gelenler
Aramalar: cilekes siyah tab, heval cuma gitar notaları, cilekes kendimden geriye akor taB, kendimden geriye akor cilekes, çilekeş kendimden geriye uzun versiyon sözleri, çilekeş kendimden geriye akor, hevalcuma akor, orjinal ton çilekeş, çilekeş, çilekeş+kendimden+geriye+tab
Çilekeş - Kendimden Geriye için Kullanıcı Görüşleri

ya arkadaşlar yorumların tümüne bakın lütfen uzun süredir burlarda değildim ...giriş kısmı bu tabın yanlış 0.50 mono delayle biraz daha farklı çalıyorsunuz....yarım ton aşağı alın deme sebebim orjinal çilekeş tonundan çalmanız içindir iyi ya da kötü eleştiriler için teşekkür ederim :D


Bu Yoruma Cevap Ver
allyouneed | 20 Ocak 2008 Pazar 21:48
eğer yarım ses aşağı alırsan çift ses basarsın ki bu şarkıyı çok kolaylaştırıyo


Bu Yoruma Cevap Ver
iron_maiden_tr | 08 Aralık 2007 Cumartesi 19:22
olmaz öyle şey Akort denen birşey var arkadaşlar bir telin akordunu değiştiriyorsanız hepisini ona göre akortlamanız lağzım.Yoksa akort yapmanın ne anlamı kalır ki...


Bu Yoruma Cevap Ver
s V s | 06 Ekim 2007 Cumartesi 18:18
bütün telleri yarım ses almaya gerek yok sadece kalın mi yi re ye çekmeniz yeterli....


Bu Yoruma Cevap Ver
iron_maiden_tr | 06 Ekim 2007 Cumartesi 17:47
çok zor aynı anda basılan tablar :(


Bu Yoruma Cevap Ver
komodo | 03 Eylül 2007 Pazartesi 00:24
SoLo kısmı:
kalın mi den,
0-13-12-0-10-12-17-15-0-12-13-0-10-12-13

daha sonra bateristle beraber girerken, aynı perdenin üçlüsünü basarak power ton veriyorsunuz. 17 ye inmemek için bir alt telden aynı notayı bulup daha hızlıda çalabilirsiniz..

Akor için teşekkürler ben çok daha farklı çalıyorum tek gitar onuda ekleyecem..


Bu Yoruma Cevap Ver
ProwLy | 27 Temmuz 2007 Cuma 11:45
gerçekten güzelde amma velakin akorumuzla oynama 2 şarkı çalcaz die bize bunu yapma ugraştırma beni....


Bu Yoruma Cevap Ver
yalchina | 07 Haziran 2007 Perşembe 19:37
parçaların akustik versiyonlarınıda yazarsanırz çok sevinirim onlar da çok hoş olmuş bilginize...


Bu Yoruma Cevap Ver
angelrock | 03 Haziran 2007 Pazar 16:58
düzenlenmiştir...

ölümüne çilekeş..........


Bu Yoruma Cevap Ver
AdminEmmi | 02 Haziran 2007 Cumartesi 17:39
arkadaşlar bu tabın akor kaydırmadan normal bi hali warsa çok makbuule geçer yaw her şarkıyı çalmak istediğimde arko mu kaydıracam. :)


Bu Yoruma Cevap Ver
carnaval_anil | 28 Nisan 2007 Cumartesi 19:12
ya soloları çok iyi biliyorumda bu terimleri nası yapacaz bilmiom pull off falan . şarkıdaki tüm soloları biliyorum.


Bu Yoruma Cevap Ver
üye-silinmiş | 27 Şubat 2007 Salı 14:53
''allyouneed'' çok komik adamsın bea tonu aşağı alın yazmış sonra ki HEH noluo :)
şarkı bitti mi arkadaşlar telleri bi ton yukları almayı unutmayım zuhahrahahaha :D


Bu Yoruma Cevap Ver
DuMaNyAk__hAkAn | 12 Ocak 2007 Cuma 18:51
hacı sen nie bizm akorumuzla oynuosun ya?


Bu Yoruma Cevap Ver
getto | 11 Ocak 2007 Perşembe 22:59
ok doruda bişeyi veriosan tam ver hocam ya..yok orası şöle siz yapın burası böle bırak öle kalsın...sohbet eder gibi TAB vermişsin tab vermeninde bi usulü var..nese yinede emeğine sağlık...


Bu Yoruma Cevap Ver
zEky | 25 Aralık 2006 Pazartesi 01:40
ah bide tellerin sıralamasını doru yapsan.ince den kalına gitceğine sen tam tersi.


Bu Yoruma Cevap Ver
sdag | 24 Aralık 2006 Pazar 20:10
aga senn daha çok çalışman lasım oki?


Bu Yoruma Cevap Ver
mahsen_18 | 15 Aralık 2006 Cuma 00:57
doğru tab eline sağlık


Bu Yoruma Cevap Ver
cnrn | 17 Kasım 2006 Cuma 23:29
buda paso yanlış telleri yarım ton alcaana ilk önce bi akorları çıkar çalışmaya dewam....


Bu Yoruma Cevap Ver
reality | 16 Ekim 2006 Pazartesi 21:04
iyi güzel olmışta kıllık olsun diye mi telleri tersden yazdın:)


Bu Yoruma Cevap Ver
zayl | 13 Ekim 2006 Cuma 18:02
yav en son çalıp gönderecem artık :D ne bu valla gayet kolay yazdım elinizde delay pedalı yoksa çalmayın etmeyin eylemeyin doğru düzgün delayle çalın adam gibi distortion kullanın...buraya en son yazarken kaymış bir satır nenden oldu anlamadım kusura bakmayın...yarım ton aşağı çekin telleri ki söylerken yırtınmayın biraz daha rahat söyleyin hem orjinal ton olsun tekrar söylüyorum 0.50 delay kullanın aşağıda yazdıydım görmemişinizdir belki tekrar veriyorum

0.50 mono delay

c#---------------------------------------------------------
g#---------------------------------------------------------
c#---------------------------------------------------------
f#-----7-------7---5-------------7-------7--5-------------
a#-------5--6--------6--5-5s6---5--6------8--5--5s6-
d#---------------------------------------------------------

doğrud düzgün muting yapamıyorsanız abi olmamış baştan itibaren yanlış diye gelmeyin beni deli etmeyin ben bizzat çalıyyorum konserlerde aynısı oluyor valla gelin izleyin :D...evet yazarken bi kaç ufak yerde yazım yanlışından kaynaklanan hatalarım olmuş olabilir onu da kulağınızla düzeltin biraz be :D anlayış gösterin ayrıca guitar pro ya da yazdım ama davul ritmlerini tutturamadım bir türlü orda bi görseniz doğru olduğunu anlarsınız davulda yardımcı oalbilecek varsa yardımlarını beklerim :)...teşekkürler


Bu Yoruma Cevap Ver
allyouneed | 09 Eylül 2006 Cumartesi 16:22
usta elıne sağlıkta biraz daha dikkatli yapsaydın ama emeğine saygı


Bu Yoruma Cevap Ver
bloody_C | 22 Ağustos 2006 Salı 18:05
güzel olmuş tbkler


Bu Yoruma Cevap Ver
aytac_boy | 17 Ağustos 2006 Perşembe 18:46
güzel olmuş tbkler


Bu Yoruma Cevap Ver
aytac_boy | 17 Ağustos 2006 Perşembe 18:46
güzel olmuş tbkler


Bu Yoruma Cevap Ver
aytac_boy | 17 Ağustos 2006 Perşembe 18:45
denemedim ama mertten dinledim cok ii calıyor


Bu Yoruma Cevap Ver
e.o.e | 06 Ağustos 2006 Pazar 15:07
giriş de yanlışlık war


Bu Yoruma Cevap Ver
üye-silinmiş | 05 Ağustos 2006 Cumartesi 19:59
yemin ederim aynısını bende çıkardım ama akortla hiç oynamadım bence hiç de gerek yok çünkü sesler aynı deneyin isterseniz akordu yarı tona indireceinize akorları yarım ton kalınlaştırın aynısı çıkıo başarılar herkese


Bu Yoruma Cevap Ver
bsrmny | 04 Ağustos 2006 Cuma 16:05
Olmamış ! Girişten itibaren yanlışlık var


Bu Yoruma Cevap Ver
riot | 04 Ağustos 2006 Cuma 00:06
bu ne yaaa....:D:D...istesen bu kadar karışık yazamazsın ama emeğe saygı yaw.nesee daha az karışık olanını bulursamm yollarım;):D:D:D


Bu Yoruma Cevap Ver
egem16 | 03 Ağustos 2006 Perşembe 19:29
çok güzel olmuş!!


Bu Yoruma Cevap Ver
/\/\eLih | 02 Ağustos 2006 Çarşamba 19:13
abi bune ya


Bu Yoruma Cevap Ver
üye-silinmiş | 27 Temmuz 2006 Perşembe 00:46
aslında sarkıyı calmak cok zor diil ama anlatan arkadas biraz karıstırmış sanki pek anlamadık:s


Bu Yoruma Cevap Ver
shizoo | 25 Temmuz 2006 Salı 17:46
arkadaşlar tab okumak konusunda sorunlarınız falan varsa ya da gitara yeni başladıysanız yardımcı olabilirm all_you_need@hotmail.com u msnde eklerseniz genelde hergün online ım kolay gelsin...


Bu Yoruma Cevap Ver
allyouneed | 24 Temmuz 2006 Pazartesi 02:43
ANLAMIYORUM NASIL OKUYORSUNUZ YADA ÇALIYORSUNUZ BUNU ŞÖLLE BİRİ NİZ ANLATABİLİR Mİ RİCA ETSEM BÜTÜNYENİLER ADINA LÜTFEN


Bu Yoruma Cevap Ver
rockercansu | 18 Temmuz 2006 Salı 20:44
tele bir kere vurup parmagını notaların uzerine 'koyma' teknigi "hammer on" , parmagını 'cekme' teknigi de "pull off" dur..


Bu Yoruma Cevap Ver
huor | 14 Temmuz 2006 Cuma 01:43
ya abi kafam karıştı.ama yinede emege saygı onu yapamayanlarda vr


Bu Yoruma Cevap Ver
üye-silinmiş | 02 Temmuz 2006 Pazar 06:19
ya abicim tab böle mi yazılır tersten yazcaksın kafam karıstı gene saolasan emegine kalbine kulagına parmagına


Bu Yoruma Cevap Ver
kirkbir | 02 Temmuz 2006 Pazar 00:38
0.50 mono delay

c#---------------------------------------------------------
g#---------------------------------------------------------
c#---------------------------------------------------------
f#-----7-------7---5-------------7-------7--5-------------
a#-------5--6--------6--5-5s6---5--6------8--5--5s6-
d#---------------------------------------------------------

giriş böyle olacak


Bu Yoruma Cevap Ver
allyouneed | 30 Haziran 2006 Cuma 16:48
ya pardon ben buraya bunu yazdığımı tamamen unutmuşum en kısa zamanda bundaki hataları düzeltip göndereyim....c# şarkının orjinal tonu bi de daha rahat söylersiniz tabii ama d ye alıp da çalabilirsiniz ama daha zor olur söylemesi bana göre sizin bileceğiniz iş hataları düzelteyim en kısa sürede bi de guitar pro ya ben ayrıca yazdım daha yayınlamadım gerçi ama onda davulları ve bası yazmak zor geliyor açıkcası halledince inşallah halledebilrsem full gönderirirm


Bu Yoruma Cevap Ver
allyouneed | 30 Haziran 2006 Cuma 16:32
yaw arkadasım bunun aynısı pro 4 tede var


Bu Yoruma Cevap Ver
one21 | 26 Haziran 2006 Pazartesi 06:58
arkadaş tab okumak çok kolay bişi bende bilmiodum bi gitar çalan arkadaşım vardı ona sordum nasıl die .bana eline gitarı alıp göstermesine gerek kalmadı.şu çizgiler teller işte ..yazan rakamlarda kaçıncı perdeye basacağını gösterio o kadar ama sen gene birisine sor varsa tanıdığın fln..


Bu Yoruma Cevap Ver
furkanunat | 24 Haziran 2006 Cumartesi 01:18
ya arkadaslar 7-8 aydır elektro çalıyorm fakat bu tab okuma işini ogrenmedm.nerden ögrenebilirm


Bu Yoruma Cevap Ver
rammstein08 | 17 Haziran 2006 Cumartesi 13:17
çok saol yaw


Bu Yoruma Cevap Ver
üye-silinmiş | 07 Haziran 2006 Çarşamba 23:14
ya bu gruplar nıe tablarını gondermıolar.Gıcık oluyrm.pentagram harıc hepsı aynı .onlar kucukken gıatr caldılar anlamaları lazım


Bu Yoruma Cevap Ver
NIRVANA | 02 Haziran 2006 Cuma 17:35
helal genç saolasın


Bu Yoruma Cevap Ver
pUnkart® | 26 Mayıs 2006 Cuma 17:10
Pardon orası E-G#-A-G#-B-C olucakmış ;)


Bu Yoruma Cevap Ver
Levenge | 25 Mayıs 2006 Perşembe 18:53
Tam orijinalini çalmak için C# e getirmek gerekiyormuş...yalnız arkadaşım yazdıklarına göre çaldım bi kaç yanlış nokta var,solo kısmında da tele vurmaya devam edip notalar arasında geçiş yapmanız lazım.Yani tele vurup her notaya parmağınızı bir kere kaldırıp diğerine geçmeniz lazım yani o notalar arasına birer "0" koyun.Tekniğin adı ne bilmiyorum ama öyle olması lazım,ikincisi hiç C# le uğraşmadan sadece en üst teli D ye alarak da çalabilirsiniz.Hatta hiç transpoze yapmadan (Sadece ritm gitar için) de çalabilirsiniz.Ama notalar aynı olması lazım.Misal herşey yalan kısmında E-G#-A-G#-C-C# şeklinde akorlarla çalabilirsiniz.Ama tabii ki D ye almanız sizin için daha kolay olur.Ben D den çalıyorum açıkçası ve pek göze batan bir fark yok.Ama tabii ki orijinal kalıp C# olması lazım :)


Bu Yoruma Cevap Ver
Levenge | 25 Mayıs 2006 Perşembe 18:52
birader şu gitarını akorduyla oynamadna yapın bi de şu işi işin yoksa perdelerle uğraş şimdi neyse bakalım biii


Bu Yoruma Cevap Ver
deadcell | 23 Mayıs 2006 Salı 12:20
sarki güzel.. söyleninenlere göre notalarida arkadas güzel yazmis.. ama bu tab okumayi nasil daha iyi ögrenebilirizz?? bi yardim lütfen??


Bu Yoruma Cevap Ver
xNeFesx | 11 Mayıs 2006 Perşembe 20:04
sütlaç gibi :)thanx


Bu Yoruma Cevap Ver
DuMaNyAk__hAkAn | 10 Mayıs 2006 Çarşamba 19:10
c#-----------7--7--7--7---------
g#--------------------------------- Görkem ölürken bile yanımda ol sevgilim yada cennet bile çekilmez
c#--------------------------------- sensiz derken bunu deneyip devam edebilirsiniz
f#------------9--9--9--9---------
a#---------------------------------
d#---------------------------------


Bu Yoruma Cevap Ver
SCimitAR | 07 Mayıs 2006 Pazar 21:15
c#-----------7--7--7--7---------
g#--------------------------------- Görkem ölürken bile yanımda ol sevgilim yada cennet bile çekilmez sensiz der-
c#--------------------------------- en bunu deneyip devam edebilirsiniz
f#------------9--9--9--9---------
a#---------------------------------
d#---------------------------------


Bu Yoruma Cevap Ver
SCimitAR | 07 Mayıs 2006 Pazar 21:07
solo yanlış çıkmış burda oysa ben böyle yazmadıydım...neyse düzeltirim


Bu Yoruma Cevap Ver
allyouneed | 15 Şubat 2006 Çarşamba 17:07
çok pardon soloyu göndercektim haklısın....

c#-12-13-12-10-12-12--12-10-8-10-8-10-12-13 4-5 defa bunu çalıyor davul giresiye kadar
g#--------------------------10-------------------------------

davulla birlikte daha coşkun çalarken 13-12 diye başlarsınız
aslında bu solo biraz da sizi insiyatifinize kalmış ben daha alinin bu soloyu iki kere
tıpatıp aynı attığını görmedim hep biraz değiştiriyor..
ama mutlaka penayla çalarken bu soloyu bir aşağı bir yukarı şeklinde kullanın penayı (alternative picking)


Bu Yoruma Cevap Ver
allyouneed | 14 Şubat 2006 Salı 18:04
tamam cidden saçma sapan gönderenler gibi deil ama solo yu ne zaman yollarsın



Bu Yoruma Cevap Ver
rock star | 14 Şubat 2006 Salı 16:33
helal olsun be dostum bravo gerçekten sen bu işi biliyorsun


Bu Yoruma Cevap Ver
yaso_putru | 12 Şubat 2006 Pazar 13:32
hiiiç önemli değil ohh be saol kardeş tamda uğraşmaktan sıkılmak üzereydim kurtardın beni


Bu Yoruma Cevap Ver
titan | 10 Şubat 2006 Cuma 23:36
sağolun teşekkürler


Bu Yoruma Cevap Ver
allyouneed | 08 Şubat 2006 Çarşamba 18:05
walla dellendim sen göndermesen ben göndercektim oturdum yazıyodum ellerine sağlık...


Bu Yoruma Cevap Ver
mutt2005 | 08 Şubat 2006 Çarşamba 02:42
abi helal yani aptal aptal akor gönderip duruolar bu şarkıya vallahi helal!


Bu Yoruma Cevap Ver
hewal | 06 Şubat 2006 Pazartesi 19:01
helal sağol.


Bu Yoruma Cevap Ver
agmedcaliskan | 06 Şubat 2006 Pazartesi 13:02
heh şütlaç gibi olmuş


Bu Yoruma Cevap Ver
471700ıceberg | 04 Şubat 2006 Cumartesi 20:25
eyvallah mert ck ii olmus ((:


Bu Yoruma Cevap Ver
cocacola | 03 Şubat 2006 Cuma 22:42
arkadaşlar bazı bölümler kaymış pardon farketmedim


Bu Yoruma Cevap Ver
allyouneed | 03 Şubat 2006 Cuma 22:33


Siz de Görüş Bildirin

Yorum yazma alanı Akor Merkezi üyelerine özel bir bölümdür. (Giriş Yap / Üye Ol / Şifremi Hatırlat)


PAYLAŞ

Reklam



Anket
HaYDuTR soruyor:
Sizce Kendi Alanında En İyi Gitarist?










Sonuçlar | Sonuçlar & Yorumlar
Yeni Anket | Anketler




Reklam


Radyo Dinle
AkorMerkezi.com © 2014
İletişim - Gizlilik Politikası - Kullanım Koşulları - Kurallar - Son Yorumlar - Rastgele

GitarAkor.com kolonisidir. Derleme 0,06 saniye.