Akor Tab Söz Çeviri Anasayfası
Akor|Tab|Söz|Nota Arşivi
Gitar Akorları | Tab,Söz ve Nota Anasayfası | En Yeni Şarkılar | En Popüler Şarkılar | Akor Cetveli

Bilgiler
 
Seslendiren ve Şarkı: Çilekeş - Kendimden Geriye
Biçim: TAB -
Tarih: 03 Eylül 2006 Pazar
Gönderen: darknessz17
Toplam Okuyan: 3.079 kişi
Bu Ay Okuyan: 10 kişi
Bu Hafta Okuyan: 0 kişi
 
Beğendiniz mi? Kendimden Geriye Tab sayfasını Şimdi paylaşın:

Çilekeş - Kendimden Geriye - Tab

  (versiyon 2)
Puanlama:
 (2 kişi)

Kendimden Geriye şarkısının diğer versiyonlarına bakın >>

Metin boyutu: ( + Büyült ) ( - Küçült)   
                                Kendimden Geriye

E------------------------------------------------------------------
B---2-2---4-4-4-5-5--4--2--0-0--5-5-5--4--5--4-5--4----------------
G------------------------------------------------------------------
D------------------------------------------------------------------
A------------------------------------------------------------------
E------------------------------------------------------------------

e------------------------------------------------------------------
b--2-2--4-4-4-5-5--4--2-0-0--7--7-7-4--5--4--5--4------------------
g------------------------------------------------------------------
d------------------------------------------------------------------
a------------------------------------------------------------------
e------------------------------------------------------------------

                            
e-----------------------------------------------------------------
b----------------------------------------------------------------- 
g-----------------------------------------------------------------
d---9-9-9-9---8-8-8-8---13-13-13---14-14-14----------------------- 3kere
a---9-9-9-9---8-8-8-8---13-13-13---14-14-14-----------------------
e---7-7-7-7---6-6-6-6---11-11-11---12-12-12-----------------------

e-----------------------------------------------------------------
b-----------------------------------------------------------------
g-----------------------------------------------------------------
d--4-4-4--5-5-5-5--7-7-7---9-9-9---10-10-10---11------------------
a--4-4-4--5-5-5-5--7-7-7---9-9-9---10-10-10---11------------------
e--2-2-2--3-3-3-3--5-5-5---7-7-7---8--8--8----9-------------------

e-----------------------------------------------------------------
b----------------------------------------------------------------
g--8-8-8-8--------------------------------------------------------
d--8-8-8-8----7-7-7-7-----9-9-9-9----7-7-7-----4-4-4-----------------
a--6-6-6-6----7-7-7-7-----9-9-9-9----7-7-7-----4-4-4-----------------
e-------------5-5-5-5-----7-7-7-7----5-5-5-----2-2-2-----------------
yukarıdaki için: ölürken bile yanımda ol seviglim kısmı.nakarata kadar tekrar..
en son riff 2.tekrarın sonunda nakarata girmeden önce..

e-----------------------------------------------------------------
b----------------------------------------------------------------- 
g-----------------------------------------------------------------
d---9-9-9-9---8-8-8-8---13-13-13---14-14-14----------------------- 3kere
a---9-9-9-9---8-8-8-8---13-13-13---14-14-14-----------------------
e---7-7-7-7---6-6-6-6---11-11-11---12-12-12-----------------------

e-----------------------------------------------------------------
b-----------------------------------------------------------------
g-----------------------------------------------------------------
d--4-4-4--5-5-5-5--7-7-7---9-9-9---10-10-10---11------------------
a--4-4-4--5-5-5-5--7-7-7---9-9-9---10-10-10---11------------------
e--2-2-2--3-3-3-3--5-5-5---7-7-7---8--8--8----9-------------------


yukarısı için:nakarat burası..

Şarkı bu şekilde dönüyor..
Kendimden Geriye Tab, AkorMerkezi.com'da yayınlanmıştır.
http://www.akormerkezi.com


İçerik Kısa Linki:


Beğendiniz mi? Kendimden Geriye Tab sayfasını Şimdi paylaşın:


Kendimden Geriye Tab için Komoçotoko'dan Gelenler
Aramalar: Çilekeş, çilekeş kendimden geriye, Kendimden Geriye, Kendimden geriye
Çilekeş - Kendimden Geriye için Kullanıcı Görüşleri

harbiden he gül gül gül :D:D


Bu Yoruma Cevap Ver
wompir | 07 Kasım 2008 Cuma 23:45
daha cok cendere ye benzıo


Bu Yoruma Cevap Ver
llewentt | 29 Eylül 2008 Pazartesi 02:31
abi 2. perdeden girceksin sora hepsini 2 perde kalınlaştırman gerekiyo ayrıca bu şarkıyı distortionla çalınmaz pedalda fade efekti lazım


Bu Yoruma Cevap Ver
metaliRock | 09 Mart 2008 Pazar 12:09
başdaki solo da
B---2-2---4-4-4-5-5--4--2--0-0--5-5-5--4--5--4-5--4---------------- 4yerine 2 daha iyi gidiyor bence


Bu Yoruma Cevap Ver
kaan_mk | 25 Ağustos 2007 Cumartesi 08:16
gzl olmuş abi ya bende pedalda var denemedimde daha ama yrn ilk işim onu çalmak olcak :D


Bu Yoruma Cevap Ver
STILLFREE | 03 Temmuz 2007 Salı 00:31
andaç kardeş. Eğer konserine gittysen fark edersin. Şarkı sonunda gitar değiştiriyorlar.

Tab güzel olmuş. eline sağlık dostum.


Bu Yoruma Cevap Ver
F9 | 13 Mayıs 2007 Pazar 16:21
metallica'nın gitarıda böle be baba konserlerde felan hep yarım ses kaydrıolar akord aletıyle -50 gevşetceksin ıste ; ) hatta mama said te album kaydına bıle yarım ses gevseterk girmişler ; )


Bu Yoruma Cevap Ver
WaRRıoR | 21 Mart 2007 Çarşamba 18:44
ya abi merak ettim şimdi millet dio bunda gitarın akoruyla oynuosun re ye çekiosun fln die peki mesela konserde adam bu şarkıyı çaldı bitirdi dier şarkıya geçicek napıo?


Bu Yoruma Cevap Ver
andac_ozay | 31 Ocak 2007 Çarşamba 16:11
Aga olmuo işte öle distortionsuz :( adam sora cendereye benzetir taby :) ama gerisi idare eder.... tşk..


Bu Yoruma Cevap Ver
getto | 11 Ocak 2007 Perşembe 23:02
kaan arkadaşım o kadar ahkam kesmişsin bi zahmet dorusunu yazda faydalanalım o zmn konuşmakla olmuo bu işler icraat plz..


Bu Yoruma Cevap Ver
zEky | 25 Aralık 2006 Pazartesi 01:42
Yorumlar için teşekkürler..Olmamış demeyin en azından evet benim gitar tonuma göre solo o telden cendere de nasıl benzetmeyse tebrik ediyorum o arkadaşı:D pedalım olmadığından böyle overdrivedan çalıp çıkardım..O yazdığım riffleri uzatırsanız olcağını göreceksiniz..Sorun olursa Msnden de koşulsuz şartsız pff yapmadan yardım ederim..


Bu Yoruma Cevap Ver
darknessz17 | 10 Kasım 2006 Cuma 22:24
çalamadım :@ üfff deli oldum ya :@


Bu Yoruma Cevap Ver
üye-silinmiş | 20 Ekim 2006 Cuma 23:54
paso yanlıs be yavrum teli re ye cekecen solo lar zate yanlıs ayrıca oktav alınıo onları yazmamısın


Bu Yoruma Cevap Ver
reality | 09 Eylül 2006 Cumartesi 13:38
paso yanlıs be yavrum teli re ye cekecen solo lar zate yanlıs ayrıca oktav alınıo onları yazmamısın


Bu Yoruma Cevap Ver
reality | 09 Eylül 2006 Cumartesi 13:38
aykut ben kayseriden emrah bu parca gitar re de olarak çalınıyo dostum eger mi ye çekili gitardan çalıyosan bunu
yine yanlış yapmışsın dostum bilmem anlata biliyomuyum


Bu Yoruma Cevap Ver
rok_you_87 | 07 Eylül 2006 Perşembe 20:58
o solo kalın telden olcak tel tonuna göre hesaplarsan ok ama kalınla çalınıyo orjinali bu


Bu Yoruma Cevap Ver
üye-silinmiş | 07 Eylül 2006 Perşembe 20:50
pek başarılı deil ama uzatma sürelri yazılırsa daa ii olabilir.bunları yeni takip edenleride düşünmk gerekir:D


Bu Yoruma Cevap Ver
topage | 07 Eylül 2006 Perşembe 18:04
kurtlar vadisi -cendere deseydin daha çok uyuyo :D


Bu Yoruma Cevap Ver
gokhane | 06 Eylül 2006 Çarşamba 23:17
olmamış..


Bu Yoruma Cevap Ver
deccallica | 06 Eylül 2006 Çarşamba 17:04
o solo öle çalınmıyo gerisini denemedim neyse eline sağlık...


Bu Yoruma Cevap Ver
/\/\eLih | 04 Eylül 2006 Pazartesi 18:31
oakdarda basarılı deil bence


Bu Yoruma Cevap Ver
_CaN_ | 03 Eylül 2006 Pazar 19:01
GÜZEL GÖRÜNÜO PEK ÇALAMADIM AMA İİ


Bu Yoruma Cevap Ver
ibne ergün | 03 Eylül 2006 Pazar 14:55
Arkadaşlar sürelerini yazmadım şarkıyı biliyosunuz zaten ona göre uzatarak çalın..Çok eğlenceli çalması:Dii eğlenceler size de bu arada heryerde söylüyorum da:D şebnemferah'dan sana bilmediğim birşey söyleyemem(full)girişi ben buldumda gerisini bulan veya elinde olan varsa hemen paylaşabilirmi.Ne zamadnır uğraşıyom yardım pls..


Bu Yoruma Cevap Ver
darknessz17 | 03 Eylül 2006 Pazar 13:17


Siz de Görüş Bildirin

Yorum yazma alanı Akor Merkezi üyelerine özel bir bölümdür. (Giriş Yap / Üye Ol / Şifremi Hatırlat)


PAYLAŞ

Reklam



Anket
Cioross soruyor:
İbanez V72ece Mi Yoksa Ibanez Aeg8e Mi?







Sonuçlar | Sonuçlar & Yorumlar
Yeni Anket | Anketler




Reklam


Radyo Dinle
AkorMerkezi.com © 2014
İletişim - Gizlilik Politikası - Kullanım Koşulları - Kurallar - Son Yorumlar - Rastgele

GitarAkor.com kolonisidir. Derleme 0,05 saniye.