Akor Tab Söz Çeviri Anasayfası
Akor|Tab|Söz|Nota Arşivi
Gitar Akorları | Tab,Söz ve Nota Anasayfası | En Yeni Şarkılar | En Popüler Şarkılar | Akor Cetveli

Bilgiler
 
Seslendiren ve Şarkı: Cüneyt Tek - Gidersen
Biçim: Akor, Gitar Akorları -
Tarih: 13 Nisan 2005 Çarşamba
Gönderen: equaall
Toplam Okuyan: 16.718 kişi
Bu Ay Okuyan: 173 kişi
Bu Hafta Okuyan: 11 kişi
 
Beğendiniz mi? Gidersen Akor sayfasını Şimdi paylaşın:
DİKKAT!
Gidersen Akor sayfasını düzgün görüntüleyemiyor olabilirsiniz.
Eğer böyle bir sıkıntınız varsa tıklayın.

Cüneyt Tek - Gidersen - Akor


Puanlama:
 (5 kişi)

Gidersen şarkısının diğer versiyonlarına bakın >>

Metin boyutu: ( + Büyült ) ( - Küçült)   
Başlangıç:

Bbm             
Gidersem bugün bu evden
F7
Bu can bu hayat düşer gözümden
F#
Ben sana deli divane
Bbm
Aşığımm………….

İntro:Bbm ,F7, F#, Bbm
        :Bbm , F7 , F# ,F7(F)
Solo: 

       Bbm                        F7                        F#                      F7(F)
E||--------------------------------------------------------------------|
B||--------------------------------------------------------------------|
G||----6-----------------3—-6—5-----------2---5-3-3--2-----2--------
---
D||-----------------------------------------------------4----4--3------|
A||--------------------------------------------------------------------|
E||--------------------------------------------------------------------|

    Bbm                                F7
E||--------------------------------------------------------------------|
B||--------------------------------------------------------------------|
G||---3--5—3—--3--5-6---5-5--3-3-2-2--2-3-2----2-3-5---3-3--2-2-----
---|
D||--------------------------------------------------------------4-4---|
A||--------------------------------------------------------------------|
E||--------------------------------------------------------------------|
     F#                                                Bbm
E||--------------------------------------------------------------------|
B||--------------------------------------------------------------------|
G||---2-------2--3—2-2--------------6-5-3------5-6-8-6-5--3-2----------|
D||-4----4-4------------4-4--3-----------------------------------------|
A||--------------------------------------------------------------------|
E||--------------------------------------------------------------------|
     Bbm                                F7
E||--------------------------------------------------------------------|
B||--------------------------------------------------------------------|
G||---3--5—3—--3--5-6---5-5--3-3-2-2--2-3-2----2-3-5---3-3--2-2-----
---|
D||--------------------------------------------------------------4-4---|
A||--------------------------------------------------------------------|
E||--------------------------------------------------------------------|
     F#                                                             F7(F)
E||--------------------------------------------------------------------|
B||--------------------------------------------------------------------|
G||---2-------2--3—2-2-------------------------------------------------|
D||-4----4-4------------4-4--3-----3-4-3-------------------------------|
A||--------------------------------------------------------------------|
E||--------------------------------------------------------------------|




F7
Canıma yapışmışken 
F#                F7(F)
Bu deli hasretin
F7                    Bbm
Ben sensiz sevgisiz 
F#                   F7(F)
Söyle yar nasıl edeyim

Bbm             
Gidersem bugün bu evden
F7
Bu can bu hayat düşer gözümden
F#
Ben sana deli divane
Bbm
Aşığımm………….

Bbm
Üzersem bir gün kıyarsam
F7
Verdiğim sözden cayarsam
F#
Alsın bu canı allahım
F7(F)
Razıyım 

Bbm
Aşkım sensiz yaşayamam 
F#                   F7(F)                 
Taşıyamam bu canı
F#                
Son darbe tek kurşunla
Bbm            F7(F)
Bitiririm acımı

Bbm             
Gidersem bugün bu evdem
F7
Bu can bu hayat düşer gözümden
F#
Ben sana deli divane
Bbm
Aşığımm………….

Bbm
Üzersem bir gün kıyarsam
F7
Verdiğim sözden cayarsam
F#
Alsın bu canı allahım
F7(F)
Razıyım 

Levent Laçin Teşekkürler.............................:]]]


Gidersen Akor, AkorMerkezi.com'da yayınlanmıştır.
http://www.akormerkezi.com


İçerik Kısa Linki:


Beğendiniz mi? Gidersen Akor sayfasını Şimdi paylaşın:


Cüneyt Tek - Gidersen KULLANILAN AKORLAR (Beta)
Bbm1 1 3 3 2 1
F7x x 1 2 1 1x x 3 5 4 5
F#2 4 4 3 2 2x 4 4 3 2 2x x 4 3 2 2
Şarkıda kullanılan akorların farklı şekillerde basılışlarıdır. (Detaylı bilgi)

Gidersen şarkısı için amatör kayıtları dinleyin: (Siz de Ekleyin)

Gidersen Akor için Komoçotoko'dan Gelenler
Aramalar: cüneyt tekgidersen akor, cüneyt tek gidersen akor, gidersen bugün bu evden ritim, cüneyt, cüneyt tek gidersen akorları, gidersen bugün bu evden cüneyt tek akor, Gidersen cüneyt tek, cüneyt tek gidersen, gidersen akor cüneyt tek, cuneit tek akor
Cüneyt Tek - Gidersen için Kullanıcı Görüşleri

ritim a-yxyy arpej:pimamiam


Bu Yoruma Cevap Ver
lensgitar | 13 Ekim 2013 Pazar 14:40
arkdaşlar bbm akorunu bilmiyorum bi tarif ederseniz şimdiden tşkkr:)3


Bu Yoruma Cevap Ver
gitarkoliks | 06 Mayıs 2011 Cuma 21:52
helal olsun kardeşim...


Bu Yoruma Cevap Ver
amateur34 | 14 Nisan 2011 Perşembe 16:49
ark.lar ritim nedir.?


Bu Yoruma Cevap Ver
zeq0 | 06 Aralık 2010 Pazartesi 00:25
tebrikler...ve teşekkürler


Bu Yoruma Cevap Ver
bounce_ | 02 Şubat 2009 Pazartesi 00:28
ya güzel olmusta gidersem deil gidersen bugün bu evden olcak...............


Bu Yoruma Cevap Ver
medcezir18 | 24 Ocak 2006 Salı 20:45
7 li deil de normal yapince daa ii olmuo mu?ben de aynen bu sekilde cikarttim akorlari ama 7 li deil f olarak onun harici bi sorun yok eline saglik..
solo birebir aynı diil gibi geldi bi de:D


Bu Yoruma Cevap Ver
e.tunca | 28 Eylül 2005 Çarşamba 12:41
ğüzel olmuş


Bu Yoruma Cevap Ver
berk_ist | 10 Eylül 2005 Cumartesi 20:14
harbiden orjinal olmuş eywallah


Bu Yoruma Cevap Ver
hamamok | 12 Ağustos 2005 Cuma 15:12
Levent ii olmuşta evet 7 li yapmasaydın daa iyiydi olsun buna da şükür eline sağlık


Bu Yoruma Cevap Ver
pandorina | 07 Ağustos 2005 Pazar 14:03
Arkadaşım süpersin ya!Sanki şarkıyı yazan; besteleyen sensin!Seni kaybetmeyeyim bağri!Ben de repertuarımı oldukça genişlettim!Senin de bunda bir katkın olursa ne mutlu!Sağlarsın dimi?Bilgine sağlık!!!!!!;))))))


Bu Yoruma Cevap Ver
tuuWuNCu | 11 Temmuz 2005 Pazartesi 20:27
Bence güzeL oturmuş eline sağlık..


Bu Yoruma Cevap Ver
pSycHo_sOuL | 30 Nisan 2005 Cumartesi 16:18
nie 7 li yaptın ki bi poha benzemio kusuru bakma


Bu Yoruma Cevap Ver
zzzzzzzzzz | 28 Nisan 2005 Perşembe 16:59
kardeş bende burdan beleş akor otlanan ekiptenim ama harbi eline sağlık...üstad büyüksüüün ... :p


Bu Yoruma Cevap Ver
serkan_yard | 27 Nisan 2005 Çarşamba 22:37
eyvallah sağolasın çok güzel olmuşellerine sağlık


Bu Yoruma Cevap Ver
wilson | 13 Nisan 2005 Çarşamba 20:45
ötekine yorum yapmıştım ama,buna da yapayım.akorlar orjinal,ellerine sağlık levent!


Bu Yoruma Cevap Ver
crazyblue | 13 Nisan 2005 Çarşamba 13:11


Siz de Görüş Bildirin

Yorum yazma alanı Akor Merkezi üyelerine özel bir bölümdür. (Giriş Yap / Üye Ol / Şifremi Hatırlat)


PAYLAŞ

Reklam



Anket
hacixx soruyor:
Sol Anahtarında Nota Biliyor musun ?







Sonuçlar | Sonuçlar & Yorumlar
Yeni Anket | Anketler




Reklam


Radyo Dinle
AkorMerkezi.com © 2014
İletişim - Gizlilik Politikası - Kullanım Koşulları - Kurallar - Son Yorumlar - Rastgele

GitarAkor.com kolonisidir. Derleme 0,05 saniye.