Akor Tab Söz Çeviri Anasayfası
Akor|Tab|Söz|Nota Arşivi
Gitar Akorları | Tab,Söz ve Nota Anasayfası | En Yeni Şarkılar | En Popüler Şarkılar | Akor Cetveli

Bilgiler
 
Seslendiren ve Şarkı: Demir Demirkan - Kahpe
Biçim: TAB -
Tarih: 16 Eylül 2007 Pazar
Gönderen: vedalar
Toplam Okuyan: 4.755 kişi
Bu Ay Okuyan: 18 kişi
Bu Hafta Okuyan: 6 kişi
 
Beğendiniz mi? Kahpe Tab sayfasını Şimdi paylaşın:

Demir Demirkan - Kahpe - Tab

  (versiyon 4)
Puanlama:
 (0 kişi)

Kahpe şarkısının diğer versiyonlarına bakın >>

Metin boyutu: ( + Büyült ) ( - Küçült)   
Demir Demirkan:Kahpe


Intro...



E----------------------------------------\-------------------------------------------
B----------------------------------------\-------------------------------------------
G----------------------------------------\-------------------------------------------
D---8--8--8------8--8------9--9----6--7--\---8--8--8------8--8------9--9----6--7-----
A---8--8--8------8--8------9--9----6--7--\---8--8--8------8--8------9--9----6--7-----
E---6--6--6------6--6------7--7----4--5--\---6--6--6------6--6------7--7----4--5-----




E------------------------------------------------------------------------------------
B------------------------------------------------------------------------------------
G------------------------------------------------------------------------------------
D---9--9------7--7-----10---------9---7-------6--5--7--------------------------------
A---9--9------7--7-----10---------9---7-------6--5--7--------------------------------
E---7--7------5--5-----8----------7---5-------4--3--5--------------------------------




girişi boyle büyük ihtimal. kolay gelsin millet!!!!
Kahpe Tab, AkorMerkezi.com'da yayınlanmıştır.
http://www.akormerkezi.com


İçerik Kısa Linki:


Beğendiniz mi? Kahpe Tab sayfasını Şimdi paylaşın:


Kahpe Tab için Komoçotoko'dan Gelenler
Aramalar: kahpe demir demirkan tab, demir demirkan kahbe tab, demir demirkan kahpe, demir demirkan kahpe gp, 0h, kahbe şarkı akorları, demir demirkan kahpe gitar tabları, demir demirkan kahpe gp tab, demir demirkan hayyam tab, kahpe akor
Demir Demirkan - Kahpe için Kullanıcı Görüşleri

yanlış orjinal ton C# den başlıyor


Bu Yoruma Cevap Ver
UnforgivenII | 28 Ekim 2008 Salı 13:55
harbiden ya :S


Bu Yoruma Cevap Ver
blackkkkk | 31 Ağustos 2008 Pazar 05:02
harbiden de solo var bilader başında bu tab mı ya akor resmen bende girerken bişi sandım haa<br/>


Bu Yoruma Cevap Ver
ozie3035 | 16 Haziran 2008 Pazartesi 20:25
saçma bence bu şarkının girişi solo bi defa


Bu Yoruma Cevap Ver
qarism@ | 10 Nisan 2008 Perşembe 13:36


Siz de Görüş Bildirin

Yorum yazma alanı Akor Merkezi üyelerine özel bir bölümdür. (Giriş Yap / Üye Ol / Şifremi Hatırlat)


PAYLAŞ

Reklam



Anket
YunusDiscovery soruyor:
En Güzel Türk Şarkısı ?











Sonuçlar | Sonuçlar & Yorumlar
Yeni Anket | Anketler




Reklam


Radyo Dinle
AkorMerkezi.com © 2014
İletişim - Gizlilik Politikası - Kullanım Koşulları - Kurallar - Son Yorumlar - Rastgele

GitarAkor.com kolonisidir. Derleme 0,05 saniye.