Akor Tab Söz Çeviri Anasayfası
Akor|Tab|Söz|Nota Arşivi
Gitar Akorları | Tab,Söz ve Nota Anasayfası | En Yeni Şarkılar | En Popüler Şarkılar | Akor Cetveli

Bilgiler
 
Seslendiren ve Şarkı: Duman - Aman Aman
Biçim: Akor, Gitar Akorları - FULL
Tarih: 17 Eylül 2011 Cumartesi
Gönderen: 1metallica7
Toplam Okuyan: 8.402 kişi
Bu Ay Okuyan: 216 kişi
Bu Hafta Okuyan: 38 kişi
 
Beğendiniz mi? Aman Aman Akor sayfasını Şimdi paylaşın:
DİKKAT!
Aman Aman Akor sayfasını düzgün görüntüleyemiyor olabilirsiniz.
Eğer böyle bir sıkıntınız varsa tıklayın.

Duman - Aman Aman - Akor

  (versiyon 6)
Puanlama:
 (3 kişi)

Aman Aman şarkısının diğer versiyonlarına bakın >>

Metin boyutu: ( + Büyült ) ( - Küçült)   
AMAN AMAN ( DUMAN )


GİRİŞ

E------------------------|----------------------|------------------------|------
----------------|
B------------------------|----------------------|------------------------|------
----------------|
G---6-6--6-6-7--6^7^6--4-|--4--4-4-6--4^6^4--2--|---6--6-6-7--6^7^6--4---|--1-1-
1--2--1^2^1-----|
D------------------------|----------------------|------------------------|------
--------------4-|
A------------------------|----------------------|------------------------|------
----------------|
E------------------------|----------------------|------------------------|------
----------------|
       
E-----------------------|----------------------|----------------------|---------
-------------|
B-----------------------|--5--5-5-7--5^7^5-----|----------------------|---------
-------------|
G--6--6-6-7--6^7^6--4---|-------------------6--|--6--6-6-7--6^7^6--4--|---------
-------------|
D-----------------------|----------------------|----------------------|--6--6-6-
7--6^7^6--4--|
A-----------------------|----------------------|----------------------|---------
-------------|
E-----------------------|----------------------|----------------------|---------
-------------|

F#m                E
Nereye gider basını alıp sorarsın
F#m               E
Kimbilir durmadan nasıl susarsın
F#m            E
Bilmeden bosuna atıp tutarsın
F#m    E          F#m    E 
Su gibi akıp geçer zaman


E-----------------------|-----------------------|------------------------|
B-----------------------|-----------------------|------------------------|
G--6--6-6-7--6^7^6--4---|-----------------------|------------------------|
D-----------------------|--4-4-4-4-4-4-4-4------|--2------------------4--|
A-----------------------|--4-4-4-4-4-4-4-4------|--2-------2-2-2--4-4----|
E-----------------------|--2-2-2-2-2-2-2-2------|--0---------------------|


F#m         E
Gezdin tozdun AMAN AMAN
F#m            E
Sazdın sözdün AMAN AMAN
F#m            E
Giderek üzdün bizi zaman

F#m         E
Yazdın çizdin AMAN AMAN
F#m         E
İncecik izdin AMAN AMAN
F#m            E
Sıraya dizdin bizi zaman


SOLO

E------------------------|----------------------|------------------------|------
----------------|
B------------------------|----------------------|------------------------|------
----------------|
G---6-6--6-6-7--6^7^6--4-|--4--4-4-6--4^6^4--2--|---6--6-6-7--6^7^6--4---|--1-1-
1--2--1^2^1-----|
D------------------------|----------------------|------------------------|------
--------------4-|
A------------------------|----------------------|------------------------|------
----------------|
E------------------------|----------------------|------------------------|------
----------------|
       

E-----------------------|----------------------|----------------------|---------
-------------|
B-----------------------|--5--5-5-7--5^7^5-----|----------------------|---------
-------------|
G--6--6-6-7--6^7^6--4---|-------------------6--|--6--6-6-7--6^7^6--4--|---------
-------------|
D-----------------------|----------------------|----------------------|--6--6-6-
7--6^7^6--4--|
A-----------------------|----------------------|----------------------|---------
-------------|
E-----------------------|----------------------|----------------------|---------
-------------|

F#m                E
Hep kacıp yeni bir adım atarken
F#m                E
Dibine kadar çileye batıp çıkarken
F#m                      E
İçine atıp atıp yoluna basıp giderken
F#m    E         F#m     E
Su gibi akıp gecer zaman


E-----------------------|----------------------------|-----------------------|--
------------------------|
B-----------------------|----------------------------|-----------------------|--
------------------------|
G-----------------------|--1-------------------------|-----------------------|--
------------------------|
D---4-4-4-4-4-4-4-4-----|--2----6--6-6-7--6^7^6--4---|---4-4-4-4-4-4-4-4-----|--
-0------------------4---|
A---4-4-4-4-4-4-4-4-----|--2-------------------------|---4-4-4-4-4-4-4-4-----|--
-2------2-2-2---4-4-----|
E---2-2-2-2-2-2-2-2-----|--0-------------------------|---2-2-2-2-2-2-2-2-----|--
-2----------------------|



F#m         E
Gezdin tozdun AMAN AMAN
F#m            E
Sazdın sözdun AMAN AMAN
F#m            E
Giderek üzdün bizi zaman

F#m         E
Yazdın çizdin AMAN AMAN
F#m         E
İncecik izdin AMAN AMAN
F#m            E
Sıraya dizdin bizi zaman

Aman Aman Akor, AkorMerkezi.com'da yayınlanmıştır.
http://www.akormerkezi.com


İçerik Kısa Linki:


Beğendiniz mi? Aman Aman Akor sayfasını Şimdi paylaşın:


Duman - Aman Aman KULLANILAN AKORLAR (Beta)
F#m2 4 4 2 2 2x 4 4 2 2 2x x 4 2 2 2
E0 2 2 1 0 0x 7 6 4 5 0
Şarkıda kullanılan akorların farklı şekillerde basılışlarıdır. (Detaylı bilgi)

Aman Aman Akor için Komoçotoko'dan Gelenler
Aramalar: duman - aman aman, duman aman, al yazmalım, duman aman aman akorları, Duman-Aman Aman, duman - aman aman full akor, aman aman full, aman aman akor, Duman akor, Duman
Duman - Aman Aman için Kullanıcı Görüşleri

Giderek üzdün bizi zaman ve Sıraya dizdin bizi zaman ın sonuna f#m yapınca daha güsel oluyo..


Bu Yoruma Cevap Ver
kara elmas | 18 Eylül 2011 Pazar 18:20


Siz de Görüş Bildirin

Yorum yazma alanı Akor Merkezi üyelerine özel bir bölümdür. (Giriş Yap / Üye Ol / Şifremi Hatırlat)


PAYLAŞ

Reklam



Anket
Patriotic soruyor:
Merida Gitar markasını hiç duydunuz mu?









Sonuçlar | Sonuçlar & Yorumlar
Yeni Anket | Anketler




Reklam


Radyo Dinle
AkorMerkezi.com © 2014
İletişim - Gizlilik Politikası - Kullanım Koşulları - Kurallar - Son Yorumlar - Rastgele

GitarAkor.com kolonisidir. Derleme 0,05 saniye.