Akor Tab Söz Çeviri Anasayfası
Akor|Tab|Söz|Nota Arşivi
Gitar Akorları | Tab,Söz ve Nota Anasayfası | En Yeni Şarkılar | En Popüler Şarkılar | Akor Cetveli

Bilgiler
 
Seslendiren ve Şarkı: Duman - Bal
Biçim: TAB -
Tarih: 02 Temmuz 2007 Pazartesi
Gönderen: enderiplikci
Toplam Okuyan: 14.776 kişi
Bu Ay Okuyan: 543 kişi
Bu Hafta Okuyan: 136 kişi
 
Beğendiniz mi? Bal Tab sayfasını Şimdi paylaşın:

Duman - Bal - Tab

  (versiyon 2)
Puanlama:
 (6 kişi)

Bal şarkısının diğer versiyonlarına bakın >>

Metin boyutu: ( + Büyült ) ( - Küçült)   
Giriş solosu sadece basla birlikte iki gitar 
eşliğinde çalınıyor. ritm gitar yok.
E----------------------------------------------------------------------
B------7-5-7---7-5-7---3--2-3--2-3--5--2--0----------------------------
G---4------------------------------------------------------------------  X4
D----------------------------------------------------------------------
A----------------------------------------------------------------------
E----------------------------------------------------------------------

üsttekinin son iki tekrarıyla beraber 
alttaki çalınıyor.yani iki kere üstteki 
tek başına, iki kere
de alttakiyle beraber çalınıyor.


E---7--14-12-14---14-12-14--10--9-10--9-10--12--9--7-------------------
B----------------------------------------------------------------------
G---------------------------------------------------------------------- X2
D----------------------------------------------------------------------
A----------------------------------------------------------------------
E----------------------------------------------------------------------

Bm    G         F#
Aşkım sen benim canımsın
Bm     G        F#
Kanına karışmış kanım 
Bm    G         F#
Söyle kimlerden kaçarsın
Bm     G        F#
Boşuna durmadan ağlarsın

tekrar solo:
E----------------------------------------------------------------------
B------7-5-7---7-5-7---3--2-3--2-3--5--2--0----------------------------
G---4------------------------------------------------------------------  X2
D----------------------------------------------------------------------
A----------------------------------------------------------------------
E----------------------------------------------------------------------

bu sefer de ikisi aynı anda ve iki kere çalınıyor.

E---7--14-12-14---14-12-14--10--9-10--9-10--12--9--7-------------------
B----------------------------------------------------------------------
G---------------------------------------------------------------------- X2
D----------------------------------------------------------------------
A----------------------------------------------------------------------
E----------------------------------------------------------------------



Bm     G         F#
Yavrum sen benim balımsın
Bm     G       F#  
Tadına alışmış canım
Bm   G     F#       Bm 
Aahh guzel kuşum gir kanıma
G              F#
Ben zaten sarhoşum

G             F#
Neeeeeeeerdesin...
G             F# 
Seeeeeeeevgilim...

G  F# A      G# G
Söyle nerdesin bal
G  F# A      G# G
Artık benlesin bal

üstteki kısmın sonlarında kalın mi 
telinden(6. telden) şu yürüyüşü yapıyor.

E-------5--7---9---7~~~~~~-------

tekrar solo:
E----------------------------------------------------------------------
B------7-5-7---7-5-7---3--2-3--2-3--5--2--0----------------------------
G---4------------------------------------------------------------------  X4
D----------------------------------------------------------------------
A----------------------------------------------------------------------
E----------------------------------------------------------------------

üsttekinin son iki tekrarıyla beraber 
alttaki çalınıyor.yani iki kere üstteki 
tek başına iki kere
de alttakiyle beraber çalınıyor.


E---7--14-12-14---14-12-14--10--9-10--9-10--12--9--7-------------------
B----------------------------------------------------------------------
G---------------------------------------------------------------------- X2
D----------------------------------------------------------------------
A----------------------------------------------------------------------
E--------------------------------------------------------------------


Bu kısım clean ton;

Bm    G   F# Bm Bm G F#
Artık sen benim canımsın
Bm    G F#  Bm    G   F#
Canlı kalan tek yarımsın
Bm    G         F#
Artık sen benim canımsın
Bm    G     F# 
canlı kalan tek yanımsın
 
G      F#
Nerdesin... 

G  F# A      G# G 
Söyle nerdesin bal )
G  F# G      G# G   ) 2x
Artık benlesin bal )

üstteki kısmın sonlarında kalın mi 
telinden(6. telden) şu yürüyüşü yapıyor.

E-------5--7---9---7~~~~~~-------

En sonda da G F# A G# G akorları 
üstüne sol major dizisininden bir 
doğaçlama solo ile bikaç ölçü daha
sürdürebilirsiniz
şarkıyı. bu şekilde hem süreyi uzatmış 
olursunuz hem de şarkı daha da keyifli 
bir hal alır. kolay ama gerçekten keyifli
bir şarkı. iyi seyirler.
Bal Tab, AkorMerkezi.com'da yayınlanmıştır.
http://www.akormerkezi.com


İçerik Kısa Linki:


Beğendiniz mi? Bal Tab sayfasını Şimdi paylaşın:


Bal şarkısı için amatör kayıtları dinleyin: (Siz de Ekleyin)

Bal Tab için Komoçotoko'dan Gelenler
Aramalar: bul terır sarkısı, duman bal gitar akoru, duman - bal tabları, duman bal sola, tab bal, duman bal tap, duman bal gitar nota, duman+bal+akor, akor merkezi bal tab, duman bal 12 eylül davası
Duman - Bal için Kullanıcı Görüşleri

Abicim nakarat şöyle olsa daha iyi olabilirdi ama ellerine sağlık iyi olmuş

G F# F Em
Söyle nerdesin bal )
G F# F Em
Artık benlesin bal );

Klasik gitarda bu daha hoş duyuluyo tabi diğer gitarlarda nasıl olur bilemem




Bu Yoruma Cevap Ver
UuUgitaristUuU | 02 Ağustos 2013 Cuma 01:09
15 Haziran 2008 Pazar tarihinde ..:DumaN:.. yazmıştı:
olmamış be ağabey çok inceden girmişin....ama uğurasmısın ellerine sağlıkk
nesi olmamış ki bunun onu anlamadım ben. çok iyi olmuş kardeşim eline sağlık.


Bu Yoruma Cevap Ver
onuratay | 11 Temmuz 2010 Pazar 10:26
sololara bakmadım ama akorlar doğru ayrıca bu soloları da çıkaramıyosan gitar çalıyorum demeyin...bence Bm baresiz basılıp işaret ve orta parmakla solo atılmalı arada üst tellere de dokunduralarak...


Bu Yoruma Cevap Ver
dvlcu | 10 Eylül 2009 Perşembe 01:55
olmamış be ağabey çok inceden girmişin....ama uğurasmısın ellerine sağlıkk


Bu Yoruma Cevap Ver
..:DumaN:.. | 15 Haziran 2008 Pazar 12:47
arkadaşlar nasıl bir ritim atsak iyi olur ben sadece aşağı aşağı .... ..... yapıorum pek tadı çıkmıo


Bu Yoruma Cevap Ver
yeni_rakı | 22 Kasım 2007 Perşembe 22:01


Siz de Görüş Bildirin

Yorum yazma alanı Akor Merkezi üyelerine özel bir bölümdür. (Giriş Yap / Üye Ol / Şifremi Hatırlat)


PAYLAŞ

Reklam



Anket
pen_tatonix soruyor:
Hayko Cepkinin en iyi şarkısı sizce hangisi ?













Sonuçlar | Sonuçlar & Yorumlar
Yeni Anket | Anketler




Reklam


Radyo Dinle
AkorMerkezi.com © 2014
İletişim - Gizlilik Politikası - Kullanım Koşulları - Kurallar - Son Yorumlar - Rastgele

GitarAkor.com kolonisidir. Derleme 0,03 saniye.