Akor Tab Söz Çeviri Anasayfası
Akor|Tab|Söz|Nota Arşivi
Gitar Akorları | Tab,Söz ve Nota Anasayfası | En Yeni Şarkılar | En Popüler Şarkılar | Akor Cetveli

Bilgiler
 
Seslendiren ve Şarkı: Duman - Bu Akşam
Biçim: TAB -
Tarih: 04 Mayıs 2007 Cuma
Gönderen: GhostofChaos61
Toplam Okuyan: 26.473 kişi
Bu Ay Okuyan: 521 kişi
Bu Hafta Okuyan: 74 kişi
 
Beğendiniz mi? Bu Akşam Tab sayfasını Şimdi paylaşın:
DİKKAT!
Bu Akşam Tab sayfasını düzgün görüntüleyemiyor olabilirsiniz.
Eğer böyle bir sıkıntınız varsa tıklayın.

Duman - Bu Akşam - Tab

  (versiyon 3)
Puanlama:
 (13 kişi)

Bu Akşam şarkısının diğer versiyonlarına bakın >>

Metin boyutu: ( + Büyült ) ( - Küçült)   
E | |------4--2--0--2-----0--2-------------------|---4--2--0--2-----0--2--2----------
B | |---2--------------4--------4--2-------------|---------------4-------------------
G | |--------------------------------------------|-----------------------------------D | |--------------------
------------------------|-----------------------------------
A | |--------------------------------------------|-----------------------------------
E | |--------------------------------------------|-----------------------------------
       Kendime geldim geleli dostlar                 Olamam kimseye düşman

|---4--2--0--2-------0--2--------------|---0--------0--------------
|---------------4---------4--2---------|------4--2-----4--2--2-----
|--------------------------------------|---------------------------
|--------------------------------------|---------------------------
|--------------------------------------|---------------------------
|--------------------------------------|---------------------------
    Bir şüphem yok kefenim sağlam          İçerim ben bu akşam


Bu Akşam Tab, AkorMerkezi.com'da yayınlanmıştır.
http://www.akormerkezi.com


İçerik Kısa Linki:


Beğendiniz mi? Bu Akşam Tab sayfasını Şimdi paylaşın:


Bu Akşam şarkısı için amatör kayıtları dinleyin: (Siz de Ekleyin)

Bu Akşam Tab için Komoçotoko'dan Gelenler
Aramalar: içerim ben bu akşam gitar notarı tab, içerim ben bu akşam guitar pro, gitar kendime geldim, içerim ben bu akşam gitar solo, kendime geldim geleli dostlar notaları gitar, duman bu akşam tab ver 3, duman bu akşam, kendime geldim geleli dostlar tab, duman kendime geldim geleli dostlar, icerim ben bu aksam gitar notalari
Duman - Bu Akşam için Kullanıcı Görüşleri

21 Temmuz 2008 Pazartesi tarihinde By_Slipknot yazmıştı:
abi bide bunu deneyin<br/>
e-------2--0-----0---------0--------------2-0-----0----------0--0------------2--0------0---------0------------------------------------------------<br/>
B---0---------3-----2--3------2---0-----------3-----2--3-----------------0----------3-----2--3----2-0---------3--2--0--2--0-0---------------<br/>
g-----------------------------------------------------------------------------------------------------------------------------------------------------------<br/>
d-----------------------------------------------------------------------------------------------------------------------------------------------------------<br/>
a-----------------------------------------------------------------------------------------------------------------------------------------------------------<br/>
E------------------------------------------------------------------------------------------ -----------------------------------------------------------------<br/>
işte budur ya helal


Bu Yoruma Cevap Ver
_FERHAT_dilik | 27 Mart 2011 Pazar 17:10
02 Ağustos 2008 Cumartesi tarihinde darthhonor yazmıştı:
idare eder
Bu iyi :D


Bu Yoruma Cevap Ver
AlayınaTab | 09 Şubat 2011 Çarşamba 17:32
hacı guzel olmus ama,
----2--0----0
--0------3---
...
diye devam eden daha ii


Bu Yoruma Cevap Ver
10s | 04 Nisan 2010 Pazar 13:07
çok güzel elinize sağlık..


Bu Yoruma Cevap Ver
dolantin | 08 Ağustos 2009 Cumartesi 09:05
abı su sırf ıkıncı telden calanlarınkı bı kere yanlıs ole solo olmaz&nbsp; by_slipknot adlı arkadasınkı ıle yorum yapılan solo mukemmel olmus ordan calın bakın ıstersenız bı


Bu Yoruma Cevap Ver
rock_for | 22 Ağustos 2008 Cuma 15:15
ama orjinale uymuyo klasik gitar da ;)


Bu Yoruma Cevap Ver
bar1157 | 04 Ağustos 2008 Pazartesi 21:08
teşekk&uuml;rler arkadaşım


Bu Yoruma Cevap Ver
FreakGkhn | 04 Ağustos 2008 Pazartesi 19:55
idare eder


Bu Yoruma Cevap Ver
darthhonor | 02 Ağustos 2008 Cumartesi 20:27
abi bide bunu deneyin<br/>
e-------2--0-----0---------0--------------2-0-----0----------0--0------------2--0------0---------0------------------------------------------------<br/>
B---0---------3-----2--3------2---0-----------3-----2--3-----------------0----------3-----2--3----2-0---------3--2--0--2--0-0---------------<br/>
g-----------------------------------------------------------------------------------------------------------------------------------------------------------<br/>
d-----------------------------------------------------------------------------------------------------------------------------------------------------------<br/>
a-----------------------------------------------------------------------------------------------------------------------------------------------------------<br/>
E------------------------------------------------------------------------------------------ -----------------------------------------------------------------<br/>


Bu Yoruma Cevap Ver
By_Slipknot | 21 Temmuz 2008 Pazartesi 10:55
<p>YA l&uuml;tfen sa&ccedil;ma sapan yorumlar yapmayın arkadaşlar adam baba gibi &ccedil;ıkarmış işte &ccedil;ok basit olmuş ama s&uuml;per uyuyo emeğe saygı biraz daha iyi &ccedil;ıkaran varsa oda gondersin bakalım...!</p>


Bu Yoruma Cevap Ver
glam_rock | 04 Temmuz 2008 Cuma 10:09
"/fck/editor/images/smiley/msn/thumbs_down.gif" alt=""/>


Bu Yoruma Cevap Ver
dlrdlr | 02 Temmuz 2008 Çarşamba 17:48
evet hem kolay hemde herkesin &ccedil;alabileceği bir par&ccedil;a haline gelmiş...= )


Bu Yoruma Cevap Ver
__TuĞçE__ | 30 Haziran 2008 Pazartesi 00:01
evet hem kolay hemde herkesin &ccedil;alabileceği bir par&ccedil;a haline gelmiş...= )


Bu Yoruma Cevap Ver
__TuĞçE__ | 30 Haziran 2008 Pazartesi 00:01
ii fena değil ama aralarda bir iki seste oynama var.eline sağlık.


Bu Yoruma Cevap Ver
AlemlernSeyyahı | 29 Haziran 2008 Pazar 12:34
e|--------------------------------------------------------------------------------------------------------------------------------------------------| <br/>
b|--------0--7--5--3--5--2--3--5--2--0------7--5--3--5--2--3--5--5 ^^/-----7--5--3--5--2--3--5--2--0-----3--2--0--3--2--0--| <br/>
g|--------------------------------------------------------------------------------------------------------------------------------------------------| <br/>
d|--------------------------------------------------------------------------------------------------------------------------------------------------| <br/>
a|--------------------------------------------------------------------------------------------------------------------------------------------------| <br/>
E|--------------------------------------------------------------------------------------------------------------------------------------------------| <br/>
<br/>
&nbsp;enn dorusu bu duman b&ouml;le &ccedil;alıo:s<br/>


Bu Yoruma Cevap Ver
emreaydın | 21 Haziran 2008 Cumartesi 17:42
<font><font class="liste_yorum">0--7--5--3--5--2--3--5--2--0------7--5--3--5--2--3--5--5 ^^/-----7--5--3--5--2--3--5--2--0-----5--3--2--3--2--0</font></font><br/>


Bu Yoruma Cevap Ver
ROCK_n ROLL | 10 Haziran 2008 Salı 21:15
yanlış yerleri var ama fena değil birader


Bu Yoruma Cevap Ver
can_61 | 16 Nisan 2008 Çarşamba 14:41
ben böyle çalıyorum valla... hem daha kolay hem dha keyifli geliyo bana :)

--------------------------------
--------------------------------
--11--9------9---------9--------
9--------12----11--12-----11--9-
--------------------------------
--------------------------------

--------------------------------
--------------------------------
--11--9------9---------9-9------
9--------12----11--12-----------
--------------------------------
--------------------------------

--------------------------------
--------------------------------
--11--9------9---------9--------
9--------12----11--12-----11--9-
--------------------------------
--------------------------------

--------------------------------
--------------------------------
--------------------------------
12--11--9--12--11-11--9-9-------
--------------------------------
--------------------------------


Bu Yoruma Cevap Ver
onurthemonur | 10 Aralık 2007 Pazartesi 00:59
Alttaki daha iyi olmuş ama baştaki biraz tuhaf olmuş bence.Uğraştığın için yine de saol.Ama KınGpıN arkadaşımızın yazdığı tab çok doğru.Bence onu kullanın!!!...


Bu Yoruma Cevap Ver
Feryy | 21 Kasım 2007 Çarşamba 17:22
king kardeşiminki doğru üsstteki çok saçma ama yinede uraşmıssın eline sağlık


Bu Yoruma Cevap Ver
frat | 17 Kasım 2007 Cumartesi 19:42
KınGpıN in gönderdiği doğru


Bu Yoruma Cevap Ver
kaan burak | 10 Kasım 2007 Cumartesi 22:44
tamamen doğru güsel.


Bu Yoruma Cevap Ver
rock | 03 Kasım 2007 Cumartesi 11:57
direk yalnış


Bu Yoruma Cevap Ver
üye-silinmiş | 27 Ekim 2007 Cumartesi 22:32
Helal olsn:P sadece 1 kere bakman yetti ;)


Bu Yoruma Cevap Ver
SlayerSatan | 25 Ekim 2007 Perşembe 15:42
Kingpin doğru tabı göndermiş.Olay budur.


Bu Yoruma Cevap Ver
Tufus | 28 Ağustos 2007 Salı 11:06
abi doğru tab bu duman konserde böyle çalıyor....(^^/ nun anlamı notayı uzatın ve 7 ye kaydırın)
e|--------------------------------------------------------------------------------------------------------------------------------------------------|
b|--------0--7--5--3--5--2--3--5--2--0------7--5--3--5--2--3--5--5 ^^/-----7--5--3--5--2--3--5--2--0-----3--2--0--3--2--0--|
g|--------------------------------------------------------------------------------------------------------------------------------------------------|
d|--------------------------------------------------------------------------------------------------------------------------------------------------|
a|--------------------------------------------------------------------------------------------------------------------------------------------------|
E|--------------------------------------------------------------------------------------------------------------------------------------------------|


Bu Yoruma Cevap Ver
KınGpıN | 11 Ağustos 2007 Cumartesi 13:14
perfecto:)))):D


Bu Yoruma Cevap Ver
cmksnc | 21 Temmuz 2007 Cumartesi 14:38
ellerine sağlık hocam çok güzel olmuş


Bu Yoruma Cevap Ver
2mess | 19 Temmuz 2007 Perşembe 11:17
4 ler 3 olsa daha iyi olur bence


Bu Yoruma Cevap Ver
DoKToR_TiLKi | 16 Temmuz 2007 Pazartesi 19:22
tamamen dogru guzel olmuş eline saglık :)


Bu Yoruma Cevap Ver
saturn1 | 11 Temmuz 2007 Çarşamba 16:50
tam amatör olanlar yani tam benm için :))


Bu Yoruma Cevap Ver
suat_gs | 20 Haziran 2007 Çarşamba 16:11
usta cok ıyı ama keske solosuda olsaydı daha ıyı olurdu elıne saağlıkk


Bu Yoruma Cevap Ver
pnt | 24 Mayıs 2007 Perşembe 21:14
oldukça güzel doğru ve kısa:)


Bu Yoruma Cevap Ver
fikosssssss | 15 Mayıs 2007 Salı 23:42


Siz de Görüş Bildirin

Yorum yazma alanı Akor Merkezi üyelerine özel bir bölümdür. (Giriş Yap / Üye Ol / Şifremi Hatırlat)


PAYLAŞ

Reklam



Anket
Janana soruyor:
Justin Bieberi Severmisiniz ?







Sonuçlar | Sonuçlar & Yorumlar
Yeni Anket | Anketler




Reklam


Radyo Dinle
AkorMerkezi.com © 2014
İletişim - Gizlilik Politikası - Kullanım Koşulları - Kurallar - Son Yorumlar - Rastgele

GitarAkor.com kolonisidir. Derleme 0,09 saniye.