Akor Tab Söz Çeviri Anasayfası
Akor|Tab|Söz|Nota Arşivi
Gitar Akorları | Tab,Söz ve Nota Anasayfası | En Yeni Şarkılar | En Popüler Şarkılar | Akor Cetveli

Bilgiler
 
Seslendiren ve Şarkı: Duman - Dön Ne Olur
Biçim: TAB - SOLO
Tarih: 04 Nisan 2012 Çarşamba
Gönderen: ahmedy00
Toplam Okuyan: 9.691 kişi
Bu Ay Okuyan: 411 kişi
Bu Hafta Okuyan: 80 kişi
 
Beğendiniz mi? Dön Ne Olur Tab sayfasını Şimdi paylaşın:

Duman - Dön Ne Olur - Tab


Puanlama:
 (4 kişi)

Dön Ne Olur şarkısının diğer versiyonlarına bakın >>

Metin boyutu: ( + Büyült ) ( - Küçült)   
E----------------------------4-4-5-4-------------------------------------------------
B-5-7-8-7-5-5-7---5-7-5-----5-------7-5-7-8-5-7-8-7-5--5-7-5---------------5-5-------
G----------7---7-7-----7-5-7--------------------------7-----7-5-4-5-7-5-7-5---5-5-4-4
Dön Ne Olur Tab, AkorMerkezi.com'da yayınlanmıştır.
http://www.akormerkezi.com


İçerik Kısa Linki:


Beğendiniz mi? Dön Ne Olur Tab sayfasını Şimdi paylaşın:


Dön Ne Olur şarkısı için amatör kayıtları dinleyin: (Siz de Ekleyin)

Dön Ne Olur Tab için Komoçotoko'dan Gelenler
Aramalar: birkaç gün içinde dön ne olur duman, şarkıların solo notaları nedir, duman dön ne olur tab akor, duman bi kaç gün içinde dön ne olur akor, dön ne olur tab, don ne olur solo, dön ne olur duman tab, duman dön ne olur tab solo, don ne olur tabs, dön e olur
Duman - Dön Ne Olur için Kullanıcı Görüşleri

http://www.youtube.com/watch?v=exMRQetklfw


Bu Yoruma Cevap Ver
bushido | 27 Eylül 2012 Perşembe 09:41
arkadaşlar bi önceki yorumumda b den değil g den çalın solonun ilk kısmını yanlş yazmsm


Bu Yoruma Cevap Ver
kaanbatu | 29 Haziran 2012 Cuma 15:33
am bb am bb
Sen gittiğinde gözüm arkada kaldı
bb
Canım sıkıldı çabuk gel
c dm(c-bb ikişer kere vur)
Tadım kalmadı sensiz gel



bb c dm
Bir kaç gün içinde dön ne olur

dm c
Bıraktığın gibi burdayım
C bb
Yalnız değilsin canındayım
dm C
Tut elimi tut yanındayım
c bb
Yalnız değilsin Canındayım



bb c dm
Bir kaç gün içinde dön ne olur

B-7-9-10-9-7-5-7-9 5-7-9-7-5-3-5-7 11-12-11-9-7-9-10 7-9-10-9-7-5-7-9 7-5-3-2-3
E-5-6-8-6-8-6-8-6-10-10-6-6-6-5-5-5 son 5 e vurmak yerine am ile bitirin daha iyi.ayrıca soloyu dinleyin daha farklı basıyor batu ben basitçe yazdım.orijinal ton hepsi.
Kendim dinleyip çkardm ilk parçam.


Bu Yoruma Cevap Ver
kaanbatu | 29 Haziran 2012 Cuma 15:29
haklısın :D


Bu Yoruma Cevap Ver
ahmedy | 30 Mayıs 2012 Çarşamba 20:27
e|-----------------------------------------------------------------------------------
|-----------------------------------------------------------------------------------
G|-7-9-10-9-7-5-7-9-55-7-9-7-5-3-5-7-11-11-11-12-11-9-7-9-11-7-9-10-9-7-5-7-9--------
|-----------------------------------------------------------------------------------
|-----------------------------------------------------------------------------------
E|-----------------------------------------------------------------------------------

e|-----------------------------------------------------------------------------------
|-----------------------------------------------------------------------------------
G|--7-9-10-9-7-5-7-9-55-7-9-7-5-3-5-7-11-11-11-12-11-9-7-9-11-7-9-10-9-7-5-7-9-------
|-----------------------------------------------------------------------------------
|-----------------------------------------------------------------------------------
E|-----------------------------------------------------------------------------------

e|-----------------------------------------------------------------------------------
|-----------------------------------------------------------------------------------
G|--7-5-3----------------------------------------------------------------------------
|-----------------------------------------------------------------------------------
|-------------------3-3-------------------------------------------------------------
E|--------3-4-6-4-6-4---3-3----------------------------------------------------------
teknikleri yazmadım


Bu Yoruma Cevap Ver
mago58 | 24 Mayıs 2012 Perşembe 03:38
güzel ama 12 ses aşşağida yani tizz olmuş şarkıyı dinlerseniz sol telin 7.perdesinden başlayınca daha iyi oluyor


Bu Yoruma Cevap Ver
mago58 | 24 Mayıs 2012 Perşembe 02:14


Siz de Görüş Bildirin

Yorum yazma alanı Akor Merkezi üyelerine özel bir bölümdür. (Giriş Yap / Üye Ol / Şifremi Hatırlat)


PAYLAŞ

Reklam



Anket
RockStar165 soruyor:
İnternetten Gitar Almakta Sıkıntı Var Mıdır?







Sonuçlar | Sonuçlar & Yorumlar
Yeni Anket | Anketler




Reklam


Radyo Dinle
AkorMerkezi.com © 2014
İletişim - Gizlilik Politikası - Kullanım Koşulları - Kurallar - Son Yorumlar - Rastgele

GitarAkor.com kolonisidir. Derleme 0,05 saniye.