Akor Tab Söz Çeviri Anasayfası
Akor|Tab|Söz|Nota Arşivi
Gitar Akorları | Tab,Söz ve Nota Anasayfası | En Yeni Şarkılar | En Popüler Şarkılar | Akor Cetveli

Bilgiler
 
Seslendiren ve Şarkı: Duman - Haberin Yok Ölüyorum
Biçim: Akor, Gitar Akorları -
Tarih: 13 Eylül 2004 Pazartesi
Gönderen: 6256
Toplam Okuyan: 36.801 kişi
Bu Ay Okuyan: 650 kişi
Bu Hafta Okuyan: 164 kişi
 
Beğendiniz mi? Haberin Yok Ölüyorum Akor sayfasını Şimdi paylaşın:

Duman - Haberin Yok Ölüyorum - Akor

  (versiyon 2)
Puanlama:
 (8 kişi)

Haberin Yok Ölüyorum şarkısının diğer versiyonlarına bakın >>

Metin boyutu: ( + Büyült ) ( - Küçült)   
C#m
Bakma bana öyle derin işim olmaz senle benim

Hiç bu kadar sevilmedin gözlerinden okuyorum
E           G#m       C#m
Haberin yok ölüyorum vay
C#m
Sorma bana nerelisin ne içersin ne giyersin

Derdim sana derman olsun ben gönülden okuyorum
E           G#m
Haberin yok ölüyorum vay

C#
Azdı yine deli günül

Üzerine geliyorum

Geçti yine boş bir ömür

Gözlerinden öpüyorum
E           G#m
Haberin yok ölüyorum way

F#m        A           C#m        
Haberin yok ben ölüyorum sen gelirken
G#m
Ben gidiyorum
F#m        A           C#m
Dermanım yok ben ölüyorum ayrılırken
G#m
Ben içiyorum


Haberin Yok Ölüyorum Akor, AkorMerkezi.com'da yayınlanmıştır.
http://www.akormerkezi.com


İçerik Kısa Linki:


Beğendiniz mi? Haberin Yok Ölüyorum Akor sayfasını Şimdi paylaşın:


Duman - Haberin Yok Ölüyorum KULLANILAN AKORLAR (Beta)
C#mx 4 6 6 5 4x x 2 1 2 0x 4 6 6 x 0
E0 2 2 1 0 0x 7 6 4 5 0
G#mx x 6 4 4 4
F#m2 4 4 2 2 2x 4 4 2 2 2x x 4 2 2 2
A0 0 2 2 2 00 4 x 2 5 05 7 7 6 5 5
Şarkıda kullanılan akorların farklı şekillerde basılışlarıdır. (Detaylı bilgi)

Haberin Yok Ölüyorum Akor için Komoçotoko'dan Gelenler
Aramalar: Haberin yok ölüyorum duman, haberin yok ölüyorum akustik akor, duman haberinyok ölüyorum akor 10, haberin yok ölüyorum akor bul, haberin yok gitar tab, duman haberin yok ölüyorum chords, bakma bana öyle derin akor, duman ölüyorum haberin yok gitar akor, haberin yok duman, haberin yok ölyüroum songester
Duman - Haberin Yok Ölüyorum için Kullanıcı Görüşleri

G#m yerine B basılmalı.


Bu Yoruma Cevap Ver
svas | 22 Ağustos 2013 Perşembe 22:19
son kısım mükemmel


Bu Yoruma Cevap Ver
mago58 | 12 Ekim 2011 Çarşamba 01:06
eline sağlık


Bu Yoruma Cevap Ver
gkhnr10 | 16 Temmuz 2007 Pazartesi 19:57
helal be walla süper olmuş emeğine sağlık warsa çile bülbülüm konseride yazarmısın


Bu Yoruma Cevap Ver
meta48 | 13 Şubat 2007 Salı 16:01
hahahh yorumdaki süper ya:D walla amma uraşmısın tebrikler


Bu Yoruma Cevap Ver
metallica_jms | 30 Ağustos 2006 Çarşamba 20:44
burdan alıp bi metin belgesine kopyalayın düzelir hade kolay gelsim:D:D


Bu Yoruma Cevap Ver
üye-silinmiş | 29 Ağustos 2006 Salı 00:09
ya arkadaşlar ben bu şarkının tabını verdim ama editör arkadaş herlde unuttuu koymayı ahanda nurya akouom atrık bakarsınız:D

DUMAN HABERİN YOK ÖLÜYORUM



E||-------------------------------------------|----------------------|
B||-------------------------------------------|----------------------|
G||---6-6-6-4---------------------------------|----3------4----------|
D||---6-6-6-4---------------------------------|--6-----6-------------|
A||---4-4-4-4---------------------------------|----------------------|
E||------------------------0-----4------------|----------------------|

20 kere haberin yok ölüyorum sölzer söylenirken aralarda 2.gitar



daha sora ilk bölümde olduu gibi 4 4 4 die gidioruz ama alttaki solo atılıo


E||-----------------------------------------|----------------------------------------------|
B||-----------------------------------------|----------------------------------------------|
G||----6----6h4---4h3---3---3h4-------------|----4---4---3---3--3h4---4---4---3---3---3h4--|
D||--6----6-----6-----6---6-----------------|--6---6---6---6---6----6---6---6---6---6------|
A||-----------------------------------------|----------------------------------------------|
E||-----------------------------------------|----------------------------------------------|

azdı yine deli gönül... burası 8 defa haberin yok ölüyorum



E||-----------------------------------------|
B||-----------------------------------------|
G||----6----6h4---4h3---3---3h4-------------|
D||--6----6-----6-----6---6-----------------|
A||-----------------------------------------|
E||-----------------------------------------|

haberin yoook ölüoyoruum vayyyy..... burası 2 defa


E||----------------------------------------------|
B||----------------------------------------------|
G||----4---4---3---3--3h4---4---4---3---3---3h4--|
D||--6---6---6---6---6----6---6---6---6---6------|
A||----------------------------------------------|
E||----------------------------------------------|

batuhan burda tek çalıo.... burasıda 2 defa




E||-------------------------------------------------------------------------------------|
B||-------------------------------------------------------------------------------------|
G||-----------------------------------666666666666------1111----------------------------|
D||--444444444444----777777777777-----666666666666------2222----------------------------|
A||--222222222222----777777777777-----444444444444------2222------^---------------------|
E||--222222222222----555555555555---------------------------------4---------------------|

soloya girene kadar sözlerle beraber solo atılırkende şarkının sonunda kadar bu akrolar




sora da batuhan bu soloyu atıo 2 defa
E||-----------------------------------------------------------------------------------------------------------------------------------|
B||-----------------------------------------------------------------------------------------------------^-----------^-----------------|
G||----11-9--11--9--11--9-9-9--11-11--13--13--13/14--13--14--13--14--13-13-13--14-14--16-16-16/18-18-18-18-18-18-18-18-18-------------|
D||-----------------------------------------------------------------------------------------------------^-----------^-----------------|
A||----9--7--9---7--9---7-7-7--9--9---11--11--11/12--11--12--11--12--11-11-11--12-12--14-14-14/16-16-16-16-16-16-16-16-16-------------|
E||-----------------------------------------------------------------------------------------------------------------------------------|


|-----------------------------------------|------------------------------------------------------------------------------------------------------------------|
|-----------------------------------------|------------------------------------------------------------------------------------------------------------------|
|-18/16-16/14-14/13-13/11-11-11-11-9-9----|---14-14-14---13-13-13---14-14-14---13-13-13-13-13-13-13----14-14-14---13-13-13---14-14-14---13-13-13-13-13-13-13-|
|-----------------------------------------|------------------------------------------------------------------------------------------------------------------|
|-16/14-14/12-12/11-11/9--9--9--9--7-7----|---12-12-12---11-11-11---12-12-12---11-11-11-11-11-11-11----12-12-12---11-11-11---12-12-12---11-11-11-11-11-11-11-|
|-----------------------------------------|------------------------------------------------------------------------------------------------------------------|

haberin yooookk beeenn ölüyorummm bu kısım sözler bitene kadar


|----------------------------------------------------------------------------------|
|----------------------------------------------------------------------------------|
|-9-9-9---8-8-8---9-9-9---8-8-8-8-8-8-8----9-9-9---8-8-8---9-9-9---8-8-8-8-8-8-8---|
|----------------------------------------------------------------------------------|
|-7-7-7---6-6-6---7-7-7---6-6-6-6-6-6-6----7-7-7---6-6-6---7-7-7---6-6-6-6-6-6-6---|
|----------------------------------------------------------------------------------|



|---------------------------------------------------------------------------------------------------|
|-----------^------------------^--------^---------------------^------------------^------------------|
|--14/17-17-17-17-----14/17-17-17-17-17-17-17--------14/17-17-17-17-----14/17-17-17-17-17-17--------|
|-----------^------------------^--------^---------------------^------------------^------------------|
|--12/15-15-15-15-----12/15-15-15-15-15-15-15--------12/15-15-15-15-----12/15-15-15-15-15-15--------|
|---------------------------------------------------------------------------------------------------|

daha sonra sözler bitince bu yapılıo kaan hoooo die bağırırıken


|----------------------------------------------------------------------------------|
|----------------------------------------------------------------------------------|
|-9-9-9---8-8-8---9-9-9---8-8-8-8-8-8-8----9-9-9---8-8-8---9-9-9---8-8-8-8-8-8-8---|
|----------------------------------------------------------------------------------|
|-7-7-7---6-6-6---7-7-7---6-6-6-6-6-6-6----7-7-7---6-6-6---7-7-7---6-6-6-6-6-6-6---|
|----------------------------------------------------------------------------------|

tekrar bu bölüm 1 kere



|---------------------------------------------------------------------------------------------------|
|-----------^------------------^-----------------------------^-------------------^------------------|
|--14/17-17-17-17-----14/17-17-17-17-17-17-17--------14/17-17-17-17-----14/17-17-17-17-17-17--------|
|-----------^------------------^-----------------------------^-------------------^------------------|
|--12/15-15-15-15-----12/15-15-15-15-15-15-15--------12/15-15-15-15-----12/15-15-15-15-15-15--------|
|---------------------------------------------------------------------------------------------------|

son kes burası bu arada kaan hala baarıo


|------------------------------------------------------------------------------------------------------------------------------------------------------------------------|
|--------------------------^-----------------^--------------------------^-----------^------------------------------------------------------------------------------------|
|--14-14-14-14/16-16-16-16-16-16-16/18-18-18-18-18-18-18-14-16-15-15-15-15-15-15-15-15-15-9-9-9---8-8-8---9-9-9---8-8-8-8-8-8-8----9-9-9---8-8-8---9-9-9---8-8-8-8-8-8-8-|
|--------------------------^-----------------^--------------------------^-----------^------------------------------------------------------------------------------------|
|--12-12-12-12/14-14-14-14-14-14-14/16-16-16-16-16-16-16-12-14-13-13-13-13-13-13-13-13-13-7-7-7---6-6-6---7-7-7---6-6-6-6-6-6-6----7-7-7---6-6-6---7-7-7---6-6-6-6-6-6-6-|
|------------------------------------------------------------------------------------------------------------------------------------------------------------------------|

şarkının sonuda böle bitio gerisini istediğiniz gibi bitirin...................

















Bu Yoruma Cevap Ver
üye-silinmiş | 29 Ağustos 2006 Salı 00:08
bu arada fatihede slm


Bu Yoruma Cevap Ver
üye-silinmiş | 18 Ağustos 2006 Cuma 02:58
arkadaşlar orfinalini ben siteye yolladım editör arkaşımız kabul ederse çok ii olardı be:D


Bu Yoruma Cevap Ver
üye-silinmiş | 18 Ağustos 2006 Cuma 02:57
arkadaşlar ben çıkardım ama nerden yazıldıını bulamıorum


Bu Yoruma Cevap Ver
fatih17 | 17 Ağustos 2006 Perşembe 01:49
Kaan - haksim89@hotmail.com hocam ciddiysen bana bi e-mail atarmısın konserde çalmayı çok istiyoruz şarkıyı fakat hiçbiyerde tabları yok


Bu Yoruma Cevap Ver
linus | 01 Ağustos 2006 Salı 18:09
C# olanı C#m yapınız.. yannış yazmışım


Bu Yoruma Cevap Ver
disobedient | 30 Temmuz 2006 Pazar 21:10
hoş olmuş


Bu Yoruma Cevap Ver
zaift_75 | 23 Temmuz 2006 Pazar 12:51
söylesene abi ne duruyorsun,tabi eğer ciddiysen..


Bu Yoruma Cevap Ver
keshMEkesh | 22 Temmuz 2006 Cumartesi 23:31
beyler bende tab var ama copy paste olayını sevmediğim ve hırsızlık muamelesinden dolayı gönderemiorum. isterseniz nerden bulabileceğinizi söyleyebilirim gp olarak.


Bu Yoruma Cevap Ver
qann | 15 Temmuz 2006 Cumartesi 20:23
bu şarkıyı tab olarak çıkarabilecek birisi varmı arkadaşlar.


Bu Yoruma Cevap Ver
linus | 15 Temmuz 2006 Cumartesi 19:14
Em ya da E işte bakın...yalnız ilk üç teli kullandığım için Em basıyorum ben...


Bu Yoruma Cevap Ver
k@remree | 04 Temmuz 2006 Salı 22:30
tavsiye...sen geliirkeeen ben gidiyoruumm 'da önce Em ye basıp sonra G#m ye basarsanız daha orjinal oluyo...


Bu Yoruma Cevap Ver
k@remree | 04 Temmuz 2006 Salı 22:29
nakaratta ben gidiyorumderken en sonda bide C olsa daha ii oluyo ama guzel olmus ses net geliyo eline saglık


Bu Yoruma Cevap Ver
üye-silinmiş | 02 Temmuz 2006 Pazar 03:17
bu şarkıyı dinleyip de efkarlanmamak mumkun deil!!!bu arada ellerine saglık gayet iyi olmuş


Bu Yoruma Cevap Ver
üye-silinmiş | 28 Mayıs 2006 Pazar 08:44
gzl olmş..


Bu Yoruma Cevap Ver
erdemtopsakal16 | 20 Ocak 2006 Cuma 00:34
Bu sarkıda içiyorum GİZEM HABERİN YOK ÖLÜYORUMMMMMMM!!!!!!!!!!!!!!!!


Bu Yoruma Cevap Ver
xxxDumanxxx | 13 Aralık 2005 Salı 13:56
ah bide solosu olsa....


Bu Yoruma Cevap Ver
Big Bad Brad | 10 Aralık 2005 Cumartesi 20:40
sankı burada eksık akor var ama neyse idare eder ellereine saglik


Bu Yoruma Cevap Ver
emeren | 10 Kasım 2005 Perşembe 20:30
eh ugrasmısın ya oda yeter :)


Bu Yoruma Cevap Ver
hakan_31 | 30 Ekim 2005 Pazar 22:37
eksik akorlar warrrrrrrrrrrr.........


Bu Yoruma Cevap Ver
56409 | 24 Ağustos 2005 Çarşamba 09:43
bende hastayım ama hasta olmakla iş bitmiyoor kardeşim


Bu Yoruma Cevap Ver
comman_sense | 14 Mayıs 2005 Cumartesi 18:59
Bu sarkiya hastayim.


Bu Yoruma Cevap Ver
mucu | 05 Aralık 2004 Pazar 20:03


Siz de Görüş Bildirin

Yorum yazma alanı Akor Merkezi üyelerine özel bir bölümdür. (Giriş Yap / Üye Ol / Şifremi Hatırlat)


PAYLAŞ

Reklam



Anket
patlican145 soruyor:
Akustik Gitarı İbanez Marka Aldım Sizce İyi mi Yaptim ?







Sonuçlar | Sonuçlar & Yorumlar
Yeni Anket | Anketler




Reklam


Radyo Dinle
AkorMerkezi.com © 2014
İletişim - Gizlilik Politikası - Kullanım Koşulları - Kurallar - Son Yorumlar - Rastgele

GitarAkor.com kolonisidir. Derleme 0,06 saniye.