Akor Tab Söz Çeviri Anasayfası
Akor|Tab|Söz|Nota Arşivi
Gitar Akorları | Tab,Söz ve Nota Anasayfası | En Yeni Şarkılar | En Popüler Şarkılar | Akor Cetveli

Bilgiler
 
Seslendiren ve Şarkı: Duman - İçerim Ben Bu Akşam
Biçim: TAB - SOLO
Tarih: 23 Temmuz 2008 Çarşamba
Gönderen: leke
Toplam Okuyan: 197.698 kişi
Bu Ay Okuyan: 16 kişi
Bu Hafta Okuyan: 830 kişi
 
Beğendiniz mi? İçerim Ben Bu Akşam Tab sayfasını Şimdi paylaşın:

Duman - İçerim Ben Bu Akşam - Tab


Puanlama:
 (302 kişi)

İçerim Ben Bu Akşam şarkısının diğer versiyonlarına bakın >>

Metin boyutu: ( + Büyült ) ( - Küçült)   
|----2-0---0-----0-----2-0---0-----00-|
B|--0-----3---2-3---2-0-----3---2-3----|

e|----2-0---0-----0--------------------|
B|--0-----3---2-3---2-0---3-2-0-3-2-00-|

Solo:

e|----2-0---0-----0-----2-0---0-----00-|
B|--0-----3---2-3---2-0-----3---2-3----|

e|----2-0---0-----0--------------------|
B|--0-----3---2-3---2-0---3-2-0-3-2-00-|

e|---54545454545h7-5454545--10-9-7-----|
B|-0-----------------------------------|

e|---54545454545p4-2---2-0---0---------|
B|-0-----------------------3---2-0-0---|

    leke_tr
İçerim Ben Bu Akşam Tab, AkorMerkezi.com'da yayınlanmıştır.
http://www.akormerkezi.com


İçerik Kısa Linki:


Beğendiniz mi? İçerim Ben Bu Akşam Tab sayfasını Şimdi paylaşın:


İçerim Ben Bu Akşam şarkısı için amatör kayıtları dinleyin: (Siz de Ekleyin)

İçerim Ben Bu Akşam Tab için Komoçotoko'dan Gelenler
Aramalar: rapsodi müzik bu akşam duman gitar tabları, içerim ben b u akşam gitar tab, duman bu.aksam tab, içerim ben bu akşam şarkısı gitar, içerim bu akşam notasyon bateri, duman ıcerım ben bu aksam klasık gıtar akor, duman icerimm ben bu aksam akor, bu aksam tabb, bu akşam duman tab kolay, içerim ben bu gece duman notaları melodika
Duman - İçerim Ben Bu Akşam için Kullanıcı Görüşleri

e|----2-0---0-----0-----2-0---0-----00-|
B|--0-----3---2h3---2-0-----3---2-3----|
G|-------------------------------------|
D|-------------------------------------|
A|-------------------------------------|
E|-------------------------------------|

e|----2-0---0-----0--------------------|
B|--0-----3---2h3---2-0---3-2-0-3-2-00-|
G|-------------------------------------|
D|-------------------------------------|
A|-------------------------------------|
E|-------------------------------------
böyle olsa nasıl olır


Bu Yoruma Cevap Ver
guitarplayers | 27 Nisan 2014 Pazar 18:16
arkadaşlar bir de c akorduyla deneyin, bu tablarla.


Bu Yoruma Cevap Ver
pelerinli | 05 Ocak 2014 Pazar 21:48
01 Mayıs 2013 Çarşamba tarihinde cParasite yazmıştı:
17 Nisan 2012 Salı tarihinde brknarda yazmıştı:
Bunu Denemenizi Tavsiye ederim ben biraz değişik buldum :)

E ----------------------------------------------------------------------------------------------------------------------------------------------
B -0--7--5--3--5-----2--3--5--2--0-------7--5--3--5--2--3--5--5----------0--7--5--3--5--2--3--5--2--0-------3--2--0--3--2--0--0
çok doğru bende böyle yapıyorum
bencede böyle güzel


Bu Yoruma Cevap Ver
xDxTx | 22 Aralık 2013 Pazar 13:08
İçerim ben bu akşam :DDD


Bu Yoruma Cevap Ver
TheGUİTAR7 | 07 Kasım 2013 Perşembe 17:23
17 Nisan 2012 Salı tarihinde brknarda yazmıştı:
Bunu Denemenizi Tavsiye ederim ben biraz değişik buldum :)

E ----------------------------------------------------------------------------------------------------------------------------------------------
B -0--7--5--3--5-----2--3--5--2--0-------7--5--3--5--2--3--5--5----------0--7--5--3--5--2--3--5--2--0-------3--2--0--3--2--0--0
çok doğru bende böyle yapıyorum


Bu Yoruma Cevap Ver
cParasite | 01 Mayıs 2013 Çarşamba 19:29

|----2-0---0-----0-----2-0---0-----00-|
B|--0-----3---2-3---2-0-----3---2-3----|

e|----2-0---0-----0--------------------|
B|--0-----3---2-3---2-0---3-2-0-3-2-00-|

Solo:

e|----2-0---0-----0-----2-0---0-----00-|
B|--0-----3---2-3---2-0-----3---2-3----|

e|----2-0---0-----0--------------------|
B|--0-----3---2-3---2-0---3-2-0-3-2-00-|

e|---54545454545h7-5454545--10-9-7-----|
B|-0-----------------------------------|

e|---54545454545p4-2---2-0---0---------|
B|-0-----------------------3---2-0-0---|



Bu Yoruma Cevap Ver
artisgitar | 27 Ocak 2013 Pazar 21:34
sözler söylendikten sonra e=5-4-5-4-5-45- solısuna geçmeden önce içerim beeeeeeeeeen dersken e=14-10 b=12 e=14-10 b=12 yaparsanız hoş olur


Bu Yoruma Cevap Ver
goztepele | 12 Kasım 2012 Pazartesi 17:14
12 Ağustos 2008 Salı tarihinde nurgül yazmıştı:
olmuşmu harbii bi deneim nerde benim gitarım<br/>
sen gitarını bulana kdr


Bu Yoruma Cevap Ver
Mrefusion | 08 Kasım 2012 Perşembe 20:58
süper çok güzel şarkı ;)


Bu Yoruma Cevap Ver
Mrefusion | 08 Kasım 2012 Perşembe 20:56
Arkadaşlar şaka gibi yorumlar yapıyorsunuz yok şöyle daha iyi yok böyle daha iyi gibi... çalmanız yorumlamanız güzelde eğer biraz bişiler biliyosanız bunun orda yazanla aynı şey oldugunu anlarsınız olmamış falan demeyin yani
e|------------------------------------------------------------|
B|-------7-5-3-5-2-3-5-2----------7-5-3-5-2-3-5-5-----|
G|--4-------------------------4-4---------------------------|
D|-----------------------------------------------------------|
A|-----------------------------------------------------------|
E|-----------------------------------------------------------|

e|------------------------------------------------------------------|
B|-------7-5-3-5-2-3-5-2----------3-2--------3-2--------------|
G|--4------------------------4-4-----------4-----------4-4-------|
D|------------------------------------------------------------------|
A|------------------------------------------------------------------|
E|-------------------------------------------------------------------|


Bu Yoruma Cevap Ver
CanCeyhan07 | 14 Haziran 2012 Perşembe 13:34
adamın hammaddesisin


Bu Yoruma Cevap Ver
SirronKcuhc | 27 Mayıs 2012 Pazar 16:50
gitar çalmaya yani başladım ve bence bu muhteşem olmuş...


Bu Yoruma Cevap Ver
aynasız | 28 Nisan 2012 Cumartesi 12:06
Bunu Denemenizi Tavsiye ederim ben biraz değişik buldum :)

E ----------------------------------------------------------------------------------------------------------------------------------------------
B -0--7--5--3--5-----2--3--5--2--0-------7--5--3--5--2--3--5--5----------0--7--5--3--5--2--3--5--2--0-------3--2--0--3--2--0--0


Bu Yoruma Cevap Ver
brknarda | 17 Nisan 2012 Salı 20:05
çok güzel olmuş elinize sağlık...


Bu Yoruma Cevap Ver
sadik467 | 06 Aralık 2011 Salı 23:37
04 Temmuz 2011 Pazartesi tarihinde the guitar hero yazmıştı:
Süper olmuş kulağına sağlık
asıl böle
A-0----3-2-3-2-0---3-2-3--------3-2-3-2-0-3-2-0-32-00
E---2-0-0----0---2-0-0---0-0-2-0-0---0-------------------


Bu Yoruma Cevap Ver
alimedi | 12 Kasım 2011 Cumartesi 12:11
07 Kasım 2011 Pazartesi tarihinde Desperado127 yazmıştı:
off arkadaşlar harika olmuş çalıyorum ama o 5454545 olduğu yerlerde h g falan var onlar ne olyuo söylermisiniz gitarı dün aldım henüz kursa gitmedim :D
pardon harika dan sonra virgül olcak.


Bu Yoruma Cevap Ver
Desperado127 | 07 Kasım 2011 Pazartesi 10:05
off arkadaşlar harika olmuş çalıyorum ama o 5454545 olduğu yerlerde h g falan var onlar ne olyuo söylermisiniz gitarı dün aldım henüz kursa gitmedim :D


Bu Yoruma Cevap Ver
Desperado127 | 07 Kasım 2011 Pazartesi 10:04
05 Kasım 2011 Cumartesi tarihinde HeroOo yazmıştı:
27 Ağustos 2011 Cumartesi tarihinde fahri043 yazmıştı:
Bakın sanki böyle daha uyumlu oluyor bi deneyin ... :

E--0--7-5-3-5-3-5-3-0--------0-7-5-3-5-3-55-----0-7-5-3-5-3-5-2-0---3-2-0---3-5-2-00
B---------------------------------------------------------------------------------------------------

:)
Şarkı adıyla sıralı liste

0-9
A
B
C
Ç
D
E
F
G
H
I
İ
J
K
L
M
N
O
Ö
P
R
S
Ş
T
U
Ü
V
Y
Z

Share

Bu Akşam
Yazdır
Seslendiren: Duman
Duman
Gönderen:
Ercan Sönmezışık
Ercan Sönmezışık Yaş: 29 - İzmir, TR Gönderilme tarihi: 02.10.2003


Eklemek için giriş yapınız!
Bu Akşam (Akor)

INTRO
e|------------------------------------------------------------|
B|-------7-5-3-5-2-3-5-2----------7-5-3-5-2-3-5-5-----|
G|--4-------------------------4-4---------------------------|
D|-----------------------------------------------------------|
A|-----------------------------------------------------------|
E|-----------------------------------------------------------|

e|------------------------------------------------------------------|
B|-------7-5-3-5-2-3-5-2----------3-2--------3-2--------------|
G|--4------------------------4-4-----------4-----------4-4-------|
D|------------------------------------------------------------------|
A|------------------------------------------------------------------|
E|-------------------------------------------------------------------|

e|---5-4-5-4-5-4-5-4-5-4-5h-7----5454545---10-9-7-------|
B|-0---------------------------------------------------------------|
G|-----------------------------------------------------------------|
D|-----------------------------------------------------------------|
A|-----------------------------------------------------------------|
E|-----------------------------------------------------------------|

e|---5-4-5-4-5-4-5-4-5-4-5p-4--2----2-0-------0--------------|
B|-0---------------------------------------------3--------2-0-0----|
G|-------------------------------------------------------------------|
D|-------------------------------------------------------------------|
A|-------------------------------------------------------------------|
E|-------------------------------------------------------------------|

Bm G A Bm
Kendime geldim geleli dostlar
G A
Olamam kimseye düşman
Bm G A Bm
Bi şüphem yok kefenim sağlam
G A Bm
İçerim ben bu akşam

INTRO

Bm G A Bm
Sesleri duydum duyalı dostlar
G A
Yola çıktım yeni baştan
Bm G A Bm
Acelem yok hedefim sağlam
G A Bm
İçerim ben bu akşam (x2)
G A
İçerim ben
Bm G Em A
Ben burda bu akşam (x4)

İçerim ben

INTRO - SOLO

Bm G A Bm
Sizleri gördüm göreli dostlar
G A
Hemen hergün bana bayram
Bm G A Bm
Yarınım yok sevenim sağlam
G A Bm
İçerim ben bu akşam (x2)
G A
İçerim ben
Bm G Em A
Ben burda bu akşam (x4)
Bm G Em A
İçerim ben bu akşam
Bm G Em A
Ben burda bu akşam (x3)

İçerim ben

En İyi Bole (Bana Gore) Full Solo
Yada Foll Solo İstemiyosan 3. Teldeki 4 leri bos Vurabilirsin Yani 0 :D


Bu Yoruma Cevap Ver
HeroOo | 05 Kasım 2011 Cumartesi 22:59
27 Ağustos 2011 Cumartesi tarihinde fahri043 yazmıştı:
Bakın sanki böyle daha uyumlu oluyor bi deneyin ... :

E--0--7-5-3-5-3-5-3-0--------0-7-5-3-5-3-55-----0-7-5-3-5-3-5-2-0---3-2-0---3-5-2-00
B---------------------------------------------------------------------------------------------------

:)
Şarkı adıyla sıralı liste

0-9
A
B
C
Ç
D
E
F
G
H
I
İ
J
K
L
M
N
O
Ö
P
R
S
Ş
T
U
Ü
V
Y
Z

Share

Bu Akşam
Yazdır
Seslendiren: Duman
Duman
Gönderen:
Ercan Sönmezışık
Ercan Sönmezışık Yaş: 29 - İzmir, TR Gönderilme tarihi: 02.10.2003


Eklemek için giriş yapınız!
Bu Akşam (Akor)

INTRO
e|------------------------------------------------------------|
B|-------7-5-3-5-2-3-5-2----------7-5-3-5-2-3-5-5-----|
G|--4-------------------------4-4---------------------------|
D|-----------------------------------------------------------|
A|-----------------------------------------------------------|
E|-----------------------------------------------------------|

e|------------------------------------------------------------------|
B|-------7-5-3-5-2-3-5-2----------3-2--------3-2--------------|
G|--4------------------------4-4-----------4-----------4-4-------|
D|------------------------------------------------------------------|
A|------------------------------------------------------------------|
E|-------------------------------------------------------------------|

e|---5-4-5-4-5-4-5-4-5-4-5h-7----5454545---10-9-7-------|
B|-0---------------------------------------------------------------|
G|-----------------------------------------------------------------|
D|-----------------------------------------------------------------|
A|-----------------------------------------------------------------|
E|-----------------------------------------------------------------|

e|---5-4-5-4-5-4-5-4-5-4-5p-4--2----2-0-------0--------------|
B|-0---------------------------------------------3--------2-0-0----|
G|-------------------------------------------------------------------|
D|-------------------------------------------------------------------|
A|-------------------------------------------------------------------|
E|-------------------------------------------------------------------|

Bm G A Bm
Kendime geldim geleli dostlar
G A
Olamam kimseye düşman
Bm G A Bm
Bi şüphem yok kefenim sağlam
G A Bm
İçerim ben bu akşam

INTRO

Bm G A Bm
Sesleri duydum duyalı dostlar
G A
Yola çıktım yeni baştan
Bm G A Bm
Acelem yok hedefim sağlam
G A Bm
İçerim ben bu akşam (x2)
G A
İçerim ben
Bm G Em A
Ben burda bu akşam (x4)

İçerim ben

INTRO - SOLO

Bm G A Bm
Sizleri gördüm göreli dostlar
G A
Hemen hergün bana bayram
Bm G A Bm
Yarınım yok sevenim sağlam
G A Bm
İçerim ben bu akşam (x2)
G A
İçerim ben
Bm G Em A
Ben burda bu akşam (x4)
Bm G Em A
İçerim ben bu akşam
Bm G Em A
Ben burda bu akşam (x3)

İçerim ben

En İyi Bole (Bana Gore) Full Solo


Bu Yoruma Cevap Ver
HeroOo | 05 Kasım 2011 Cumartesi 22:57
Bakın sanki böyle daha uyumlu oluyor bi deneyin ... :

E--0--7-5-3-5-3-5-3-0--------0-7-5-3-5-3-55-----0-7-5-3-5-3-5-2-0---3-2-0---3-5-2-00
B---------------------------------------------------------------------------------------------------

:)


Bu Yoruma Cevap Ver
fahri043 | 27 Ağustos 2011 Cumartesi 20:53
Bakın hammerde parmağımızı o notaya çekiç gibi vuruyoruz.Pull of ta ise notaya bastıktan sonra parmağımızı kaldırıyoruz.


Bu Yoruma Cevap Ver
berkil | 13 Temmuz 2011 Çarşamba 18:19
Süper olmuş kulağına sağlık


Bu Yoruma Cevap Ver
the guitar hero | 04 Temmuz 2011 Pazartesi 15:39
19 Haziran 2009 Cuma tarihinde leke yazmıştı:
e|----2-0---0-----0-----2-0---0-----00-| <br/>
B|--0-----3---2-3---2-0-----3---2-3----| <br/>
<br/>
e|----2-0---0-----0--------------------| <br/>
B|--------3---2-3---2-0---3-2-0-3-2-00-|<br/>
"/fck/editor/images/smiley/msn/tounge_smile.gif" alt=""/>&nbsp;<br/>
<strong>Bİr de b&ouml;yle deneyin</strong>
böylede oluyo güzel olmuş


Bu Yoruma Cevap Ver
TheClown | 14 Haziran 2011 Salı 22:11
ellerine kollarına sağlık kardeş


Bu Yoruma Cevap Ver
вяку αη∂ яσ¢к | 08 Haziran 2011 Çarşamba 20:35
çok güzel olmuş eline kulağına sağlık yerleri yanlış yazmışsın

e|----2-0---0-----0-----2-0---0-----00-|
B|--0-----3---2-3---2-0-----3---2-3----|

e|----2-0---0-----0--------------------|
B|---------3---2-3---2-0---3-2-0-3-2-00-|

o şöle olcaktı
e |---0------3----23----2--0 gibi
B |-----2-0----0-----0---------


Bu Yoruma Cevap Ver
Gitaristi | 26 Mayıs 2011 Perşembe 19:43
08 Nisan 2011 Cuma tarihinde abatay1 yazmıştı:
09 Şubat 2010 Salı tarihinde 3kin yazmıştı:
5h7 diyor 5p4 diyor burdaki h ve p ne oluyor bilen birisi varsa açıklayabilir mi ??
arkadaslar tablardaki h ve p lerin anlami cok basit. tele vurmadan nota degistiriyorsunuz bunu yapmak icin de
h icin parmaginizi tele cekic gibi vuruyosunuz.
p icin parmaginizi kaldirmaniz yeterli. tabii diger parmaginiz gececeginiz notanin uzerinde olmali :D
sevdan bir ateşin solusunu atablrmsn


Bu Yoruma Cevap Ver
cekomo | 01 Mayıs 2011 Pazar 12:32
height="51" "/fck/editor/images/smiley/msn/thumbs_up.gif" width="37" alt=""/>Guzel olmuş teşekk&uuml;rler..height="49" "/fck/editor/images/smiley/msn/thumbs_up.gif" width="51" alt=""/><br/>
&nbsp;&nbsp;&nbsp;&nbsp;&nbsp;&nbsp;&nbsp;&nbsp;&nbsp;&nbsp;&nbsp; "/fck/editor/images/smiley/msn/thumbs_up.gif" alt=""/>&nbsp;&nbsp;&nbsp;&nbsp;&nbsp;&nbsp;&nbsp;&nbsp;&nbsp;&nbsp;&nbsp;&nbsp;&nbsp;&nbsp;&nbsp;&nbsp;&nbsp;&nbsp;&nbsp;&nbsp;&nbsp;&nbsp;&nbsp;&nbsp;&nbsp;&nbsp;&nbsp;&nbsp;&nbsp;&nbsp;&nbsp;&nbsp;&nbsp;&nbsp;&nbsp;&nbsp;&nbsp;&nbsp;&nbsp;"/fck/editor/images/smiley/msn/thumbs_up.gif" alt=""/>


Bu Yoruma Cevap Ver
chester charles | 30 Nisan 2011 Cumartesi 11:45
19 Ağustos 2009 Çarşamba tarihinde bsuctu yazmıştı:
545454 kısmını hiç anlamıdm.Öbürleri süperde.Bi yardımcı olsanız
o kısım da elini 4 ten kaldırmadan 5 bascan


Bu Yoruma Cevap Ver
HoTSHoT41 | 17 Nisan 2011 Pazar 10:39
09 Şubat 2010 Salı tarihinde 3kin yazmıştı:
5h7 diyor 5p4 diyor burdaki h ve p ne oluyor bilen birisi varsa açıklayabilir mi ??
arkadaslar tablardaki h ve p lerin anlami cok basit. tele vurmadan nota degistiriyorsunuz bunu yapmak icin de
h icin parmaginizi tele cekic gibi vuruyosunuz.
p icin parmaginizi kaldirmaniz yeterli. tabii diger parmaginiz gececeginiz notanin uzerinde olmali :D


Bu Yoruma Cevap Ver
abatay1 | 08 Nisan 2011 Cuma 15:27
ya bunu herkez çalamaz basitini veriyim arkadaşlar
E:0-7-5-3-5-2-3-5-2-0 -7-5-3-5-2-3-5-5 -7-5-3-5 2-3-5-2-0 3-2-0-3-2-0-0
hep böyle devam ediyor
arkadaşlar istediğiniz tab olursa cevapla kısmından istek şarkınızı söyleyin ben çıkarıp size gönderiyim


Bu Yoruma Cevap Ver
KıRıK_KaLeM_56 | 30 Mart 2011 Çarşamba 14:39
zaten 54545454 yerini bilmeyenden hayır gelmez :D Orası solo yeri kardeşim :DD


Bu Yoruma Cevap Ver
xXxSarpayxXx | 22 Mart 2011 Salı 10:23
Kendinmi çıkardın süper olmuş


Bu Yoruma Cevap Ver
NiCKyOq | 12 Mart 2011 Cumartesi 11:43
08 Ağustos 2010 Pazar tarihinde s_nba yazmıştı:
3-2-0-3-2-00 kulağa iyi gelmiyor sanki ama gerisi iyi emeğine sağlık ;)
En güzel kısım orası bana göre gayet iyi geliyor kulağa


Bu Yoruma Cevap Ver
Guitar7 | 21 Şubat 2011 Pazartesi 17:45
çok güzel emeğine sağlık...


Bu Yoruma Cevap Ver
elktroforever | 20 Ocak 2011 Perşembe 20:35
17 Kasım 2010 Çarşamba tarihinde sedna 90 yazmıştı:
E:0-7-5-3-5-2-3-5-2-0
0-7-5-3-5-2-3-5-5
buda iyi ama orjinali yukarıdaki gibi sanırım :P
<span style="font-weight: bold; font-style: italic;">bu da iyiymiş"/fck/editor/images/smiley/msn/thumbs_up.gif" alt=""/><br/>
</span><blockquote width="80%" align="left" style="background-color: rgb(237, 237, 237);">
<pre style="color: black; font-family: courier new;">&nbsp;</pre>


Bu Yoruma Cevap Ver
GuitaritsFurkan | 20 Kasım 2010 Cumartesi 14:19
E:0-7-5-3-5-2-3-5-2-0
0-7-5-3-5-2-3-5-5
buda iyi ama orjinali yukarıdaki gibi sanırım :P


Bu Yoruma Cevap Ver
sedna 90 | 17 Kasım 2010 Çarşamba 11:30
I ne abicim :)


Bu Yoruma Cevap Ver
pro_gitar | 29 Ekim 2010 Cuma 11:50
19 Ağustos 2009 Çarşamba tarihinde bsuctu yazmıştı:
545454 kısmını hiç anlamıdm.Öbürleri süperde.Bi yardımcı olsanız
şarkıda ince biyer varya orası işte .D


Bu Yoruma Cevap Ver
**rock_qirL** | 24 Eylül 2010 Cuma 22:16
19 Ağustos 2009 Çarşamba tarihinde bsuctu yazmıştı:
545454 kısmını hiç anlamıdm.Öbürleri süperde.Bi yardımcı olsanız
şarkıda ince biyer varya orası işte .D


Bu Yoruma Cevap Ver
**rock_qirL** | 24 Eylül 2010 Cuma 22:15
05 Temmuz 2010 Pazartesi tarihinde Ayse Sewm yazmıştı:
ya 545454 böLümü ckkkk sacma bnce xP
hayır şarkıyı dnle ve onu hızlı çalacan :D


Bu Yoruma Cevap Ver
**rock_qirL** | 24 Eylül 2010 Cuma 22:14
05 Temmuz 2010 Pazartesi tarihinde Ayse Sewm yazmıştı:
ya 545454 böLümü ckkkk sacma bnce xP
neden? gayet iyi bence o bölüm :S ayrıca orjinalindede o kısım var biliyosundur heralde!


Bu Yoruma Cevap Ver
sahrock | 02 Eylül 2010 Perşembe 03:00
3-2-0-3-2-00 kulağa iyi gelmiyor sanki ama gerisi iyi emeğine sağlık ;)


Bu Yoruma Cevap Ver
s_nba | 08 Ağustos 2010 Pazar 23:22
iyi olmuş 4 verdim


Bu Yoruma Cevap Ver
Ertugy | 22 Temmuz 2010 Perşembe 16:35
kolay ve güzel solo bu arada h (hammer on) p (pull of)


Bu Yoruma Cevap Ver
thepage | 18 Temmuz 2010 Pazar 23:15
ya 545454 böLümü ckkkk sacma bnce xP


Bu Yoruma Cevap Ver
Ayse Sewm | 05 Temmuz 2010 Pazartesi 23:30
24 Nisan 2009 Cuma tarihinde sertac123 yazmıştı:
<p><strong><em>arkadaşım ii g&uuml;zel hoş ta bu ne ya insan okorlarını da koyar sadece bunumu &ccedil;alcaz"/fck/editor/images/smiley/msn/thumbs_down.gif" alt=""/></em></strong></p>
arkadşm solo bu, akorları ne yapıcksn?


Bu Yoruma Cevap Ver
zynp... | 14 Haziran 2010 Pazartesi 20:10
bu çaldığım ilk şarkı ve gerçekten çk bast ama gnede teşk.!!!


Bu Yoruma Cevap Ver
denisee | 27 Nisan 2010 Salı 19:51
27 Mart 2010 Cumartesi tarihinde merterci yazmıştı:
21 Şubat 2010 Pazar tarihinde emmmre yazmıştı:
gitar çalmaya yeni başladım. çok güzel olmuş yeni başlamama rağmen çaldım :) yanlız sadece solodaki araya giren işaretlerin ne anlama geldiğini bilmediğimden tam çıkartamadım. "h" ve "p" nin ne anlama geldiğini anlatırmısınız?
h hammer on olması lazım ama p'yi bende bilmiyorum :)
h hammer on p pull off


Bu Yoruma Cevap Ver
dasasd | 09 Nisan 2010 Cuma 22:06
31 Ocak 2010 Pazar tarihinde servet dursun yazmıştı:
31 Ocak 2010 Pazar tarihinde servet dursun yazmıştı:
19 Haziran 2009 Cuma tarihinde leke yazmıştı:
<p>e|----2-0---0-----0-----2-0---0-----00-| <br/>
B|--0-----3---2-3---2-0-----3---2-3----| <br/>
<br/>
e|----2-0---0-----0--------------------| <br/>
B|---------3---2-3---2-0---3-2-0-3-2-00-|&nbsp;<br/>
<br/>
Bide <br/>
</p>
abi bu I B bide M ne oluyo lütfen bana yardımcı olunnnn
m yok heralde yhaa e var bunlar ne oluyo lütfen yardımcı olun bu besteyi çalmak istiyorum
arkadaşım oradaki | işareti tel adıyla tabı ayırmak için kullanılır xD ayrıca gördüğüm kadarıyla M di,ye bişey yok ve B'de 2. tele verilen isimdir :D


Bu Yoruma Cevap Ver
merterci | 27 Mart 2010 Cumartesi 21:19
21 Şubat 2010 Pazar tarihinde emmmre yazmıştı:
gitar çalmaya yeni başladım. çok güzel olmuş yeni başlamama rağmen çaldım :) yanlız sadece solodaki araya giren işaretlerin ne anlama geldiğini bilmediğimden tam çıkartamadım. "h" ve "p" nin ne anlama geldiğini anlatırmısınız?
h hammer on olması lazım ama p'yi bende bilmiyorum :)


Bu Yoruma Cevap Ver
merterci | 27 Mart 2010 Cumartesi 21:18
gitar çalmaya yeni başladım. çok güzel olmuş yeni başlamama rağmen çaldım :) yanlız sadece solodaki araya giren işaretlerin ne anlama geldiğini bilmediğimden tam çıkartamadım. "h" ve "p" nin ne anlama geldiğini anlatırmısınız?


Bu Yoruma Cevap Ver
emmmre | 21 Şubat 2010 Pazar 09:47
Abi Süper Emeğine Sağlk Ellern Dert Grmsn. Hacı....


Bu Yoruma Cevap Ver
FreeStanbul | 09 Şubat 2010 Salı 22:40
5h7 diyor 5p4 diyor burdaki h ve p ne oluyor bilen birisi varsa açıklayabilir mi ??


Bu Yoruma Cevap Ver
3kin | 09 Şubat 2010 Salı 14:53
31 Ocak 2010 Pazar tarihinde servet dursun yazmıştı:
19 Haziran 2009 Cuma tarihinde leke yazmıştı:
<p>e|----2-0---0-----0-----2-0---0-----00-| <br/>
B|--0-----3---2-3---2-0-----3---2-3----| <br/>
<br/>
e|----2-0---0-----0--------------------| <br/>
B|---------3---2-3---2-0---3-2-0-3-2-00-|&nbsp;<br/>
<br/>
Bide <br/>
</p>
abi bu I B bide M ne oluyo lütfen bana yardımcı olunnnn
m yok heralde yhaa e var bunlar ne oluyo lütfen yardımcı olun bu besteyi çalmak istiyorum


Bu Yoruma Cevap Ver
servet dursun | 31 Ocak 2010 Pazar 11:22
19 Haziran 2009 Cuma tarihinde leke yazmıştı:
<p>e|----2-0---0-----0-----2-0---0-----00-| <br/>
B|--0-----3---2-3---2-0-----3---2-3----| <br/>
<br/>
e|----2-0---0-----0--------------------| <br/>
B|---------3---2-3---2-0---3-2-0-3-2-00-|&nbsp;<br/>
<br/>
Bide <br/>
</p>
abi bu I B bide M ne oluyo lütfen bana yardımcı olunnnn


Bu Yoruma Cevap Ver
servet dursun | 31 Ocak 2010 Pazar 11:20
ya beyler 1.23 saniyedeki solo nasl atılıo


Bu Yoruma Cevap Ver
duman_ist | 22 Aralık 2009 Salı 12:13
eline koluna sağlık süper ve ötesi


Bu Yoruma Cevap Ver
weROCK | 25 Ekim 2009 Pazar 11:43
ya bu benim ilk çaldığım şarkıydı şimdi acayipp kolay gelioooo:D


Bu Yoruma Cevap Ver
rock_angel* | 25 Eylül 2009 Cuma 22:39
cok guzel olmus :D akorlar da olsa...


Bu Yoruma Cevap Ver
MariaEmre | 25 Eylül 2009 Cuma 12:12
e|---54545454545h7-5454545--10-9-7-----|
B|-0-----------------------------------|

h7 ne dmk ya. biri yardmcı olsun??


Bu Yoruma Cevap Ver
piraye. | 03 Eylül 2009 Perşembe 17:26
545454 kısmını hiç anlamıdm.Öbürleri süperde.Bi yardımcı olsanız


Bu Yoruma Cevap Ver
bsuctu | 19 Ağustos 2009 Çarşamba 18:38
31 Temmuz 2009 Cuma tarihinde HyPnose86 yazmıştı:
iyi güzelde emek hırsızlıgına gerk yok gercı baya emek harcamısısn Ctrl+C Ctrl+V
:D hhhhe


Bu Yoruma Cevap Ver
shogun94 | 14 Ağustos 2009 Cuma 19:25
iyi güzelde emek hırsızlıgına gerk yok gercı baya emek harcamısısn Ctrl+C Ctrl+V


Bu Yoruma Cevap Ver
HyPnose86 | 31 Temmuz 2009 Cuma 15:20
e|----2-0---0-----0-----2-0---0-----00-| <br/>
B|--0-----3---2-3---2-0-----3---2-3----| <br/>
<br/>
e|----2-0---0-----0--------------------| <br/>
B|--------3---2-3---2-0---3-2-0-3-2-00-|<br/>
"/fck/editor/images/smiley/msn/tounge_smile.gif" alt=""/>&nbsp;<br/>
<strong>Bİr de b&ouml;yle deneyin</strong>


Bu Yoruma Cevap Ver
leke | 19 Haziran 2009 Cuma 23:34
<p>e|----2-0---0-----0-----2-0---0-----00-| <br/>
B|--0-----3---2-3---2-0-----3---2-3----| <br/>
<br/>
e|----2-0---0-----0--------------------| <br/>
B|---------3---2-3---2-0---3-2-0-3-2-00-|&nbsp;<br/>
<br/>
Bide <br/>
</p>


Bu Yoruma Cevap Ver
leke | 19 Haziran 2009 Cuma 23:31
Arkadaşlar bu yorumları yazanlar gitar çalmayı bilmiyor galiba ^^
Bu tab neredeyse %100 doğrudur.

|----2-0---0-----0-----2-0---0-----00-|
B|--0-----3---2-3---2-0-----3---2-3----|

e|----2-0---0-----0--------------------|
B|--0-----3---2-3---2-0---3-2-0-3-2-00-|

Bölümünü başta 2 kez çalıyorsunuz.
Sözlerde bass gitar ve bateri çalıyor.Arkadan boş durmamak için vals ritminde Am-E git gel yapabilirsiniz(hızlı ve hafif bir sesle).

Zaten aralarda çalınacağı yerler belli yukarıdakinin.
Sonuna gelincede soloyu çalıyorsunuz.

e|----2-0---0-----0-----2-0---0-----00-|
B|--0-----3---2-3---2-0-----3---2-3----|

e|----2-0---0-----0--------------------|
B|--0-----3---2-3---2-0---3-2-0-3-2-00-|

e|---54545454545h7-5454545--10-9-7-----|
B|-0-----------------------------------|

e|---54545454545p4-2---2-0---0---------|
B|-0-----------------------3---2-0-0---|

İlk iki bar zaten farkettiyseniz introyla birebir.
Sonrasında 5454545454 kısımlarında parmağınızı 4 den kaldırmadan yaparsanız zorlanmazsınız.Gerçekten çok güzel bir tab ve uyumlu.

Yazan kişiyi tebrik ediyorum ;)

5 Yıldız verdim.


Bu Yoruma Cevap Ver
C.J. | 19 Haziran 2009 Cuma 13:22
güzel olmuş....


Bu Yoruma Cevap Ver
s_dnz | 08 Haziran 2009 Pazartesi 22:45
ya abi nsl olcakki şimdi bu bğenmedim


Bu Yoruma Cevap Ver
kutay800 | 28 Nisan 2009 Salı 16:04
ama yinede 5 puan veriorm sana bu kıyağımı unutma


Bu Yoruma Cevap Ver
sertac123 | 24 Nisan 2009 Cuma 11:03
<p><strong><em>arkadaşım ii g&uuml;zel hoş ta bu ne ya insan okorlarını da koyar sadece bunumu &ccedil;alcaz"/fck/editor/images/smiley/msn/thumbs_down.gif" alt=""/></em></strong></p>


Bu Yoruma Cevap Ver
sertac123 | 24 Nisan 2009 Cuma 11:03
sarkıyı ılk defa dınlıyordum ve cok begendım.tablarda super ellerınızısalık


Bu Yoruma Cevap Ver
Elnur_kou | 20 Nisan 2009 Pazartesi 16:09
22 Ocak 2009 Perşembe tarihinde the.rock yazmıştı:
güzel ama boş teller hiç hoş deil boş teldeki sesleri bulun normal halini daha güzel oluo
--0--7--5--3--5--2--3--5--2--0------------7--5--3--5--2--3--5--5---------7--5--3--5--2--3--5--2--0--0--3--2--0--3--2--0--0--0
bu şekill dha iiii :D


Bu Yoruma Cevap Ver
Habbayn | 27 Mart 2009 Cuma 13:43
herçekten güzel olmuş tebrik edrim


Bu Yoruma Cevap Ver
branix | 21 Mart 2009 Cumartesi 16:32
bnce bu Şekilde dha ii
--0--7--5--3--5--2--3--5--2--0------------7--5--3--5--2--3--5--5---------7--5--3--5--2--3--5--2--0--0--3--2--0--3--2--0--0--0


Bu Yoruma Cevap Ver
rapandrock | 05 Şubat 2009 Perşembe 22:52
arkadaş süper yhaaa


Bu Yoruma Cevap Ver
gatto_lacrima | 03 Şubat 2009 Salı 20:43
kardeş 1.den sonra 2. de 0 la baslamıo 2le direk baslıo gerisi doru


Bu Yoruma Cevap Ver
Quuen | 03 Şubat 2009 Salı 16:55
süper her şeyi tamam emeğin için saol


Bu Yoruma Cevap Ver
gatto_lacrima | 28 Ocak 2009 Çarşamba 11:57
güzel olmş tebrikler


Bu Yoruma Cevap Ver
mvö_nur | 24 Ocak 2009 Cumartesi 13:27
güzel ama boş teller hiç hoş deil boş teldeki sesleri bulun normal halini daha güzel oluo


Bu Yoruma Cevap Ver
the.rock | 22 Ocak 2009 Perşembe 18:53
intiro çk gzlde solo da snki bi eksiklik vr ama eline sağlık


Bu Yoruma Cevap Ver
ofs | 19 Ocak 2009 Pazartesi 14:43
e|---54545454545h7-5454545--10-9-7-----|
B|-0-----------------------------------|



arkadaşlar bu bölüm nasıl çalınıyor biri söyleyebir mi?


Bu Yoruma Cevap Ver
MuKo_Kt | 17 Ocak 2009 Cumartesi 16:39
çok iyi olmuş kardeşim yalnız
e|---54545454545h7-5454545--10-9-7-----|
B|-0-----------------------------------|

burda bi eksiklik var gibi 10-9-7 ye geçerken


Bu Yoruma Cevap Ver
oguz92 | 03 Ocak 2009 Cumartesi 19:30
güzellll...


Bu Yoruma Cevap Ver
-gtrist- | 31 Aralık 2008 Çarşamba 23:33
<p>Arkadaşlar bncede s&uuml;per olmuş afakat k&uuml;&ccedil;&uuml;k hatalar var bu bilgileri once gitar &uuml;st&uuml;nde sonra bilgisayara gecirmek kolay olmamıştır tebrikler ve akorlarinin devamini istiyorum "/fck/editor/images/smiley/msn/wink_smile.gif" alt=""/></p>


Bu Yoruma Cevap Ver
Berkcann | 29 Aralık 2008 Pazartesi 19:19
bu h ve p ne oluyor


Bu Yoruma Cevap Ver
lexas | 15 Aralık 2008 Pazartesi 11:08
Çok güzel olmuş ellerinize sağlık


Bu Yoruma Cevap Ver
TutkuMusic | 12 Aralık 2008 Cuma 12:22
eline sağlık süper olms tabi son tarafta duman gibi coşturmak içn 7. perdeye falan kaymak gerekio güzl oluo öle :D


Bu Yoruma Cevap Ver
HalfEvil333 | 20 Ekim 2008 Pazartesi 13:01
BrknS kardeş bu saten hp aynı gidiyo eksik yok süper olmuş


Bu Yoruma Cevap Ver
BlindImam | 15 Ekim 2008 Çarşamba 15:06
TEK KELIME ILE (PERFECT) :D:D


Bu Yoruma Cevap Ver
gangsta50 | 10 Ekim 2008 Cuma 16:52
ha tam dumanın konserde çaldığı helal


Bu Yoruma Cevap Ver
BlindImam | 07 Ekim 2008 Salı 15:31
olmus ıste super <br/>


Bu Yoruma Cevap Ver
gul bakıslım | 05 Ekim 2008 Pazar 21:36
helal olsun kardeşim ;)


Bu Yoruma Cevap Ver
blackkkkk | 23 Eylül 2008 Salı 05:43
sonunda eksik var gibi


Bu Yoruma Cevap Ver
BrknS | 04 Eylül 2008 Perşembe 16:48
bencede g&uuml;zel olmuş<br/>


Bu Yoruma Cevap Ver
amorphis_tr | 22 Ağustos 2008 Cuma 12:14
g&uuml;zel olmuş&nbsp;=) tebrikkkk"/fck/editor/images/smiley/msn/thumbs_up.gif" alt=""/>


Bu Yoruma Cevap Ver
cUrseDd_n0ise | 20 Ağustos 2008 Çarşamba 00:07
5454545 değilde 454545 olmıcakmıydı<br/>


Bu Yoruma Cevap Ver
TibeRiuM | 19 Ağustos 2008 Salı 22:56
<p><strong><em>g&uuml;zel tamm da cok bas cıkıyo bu tabları incelt bence</em></strong></p>


Bu Yoruma Cevap Ver
denizcan_rock | 17 Ağustos 2008 Pazar 16:11
baştakininde başa e koymamışın sıra az kaymış o y&uuml;zden yanlış &ccedil;alabilirsiniz ona dikkat edin<br/>
&nbsp;<br/>


Bu Yoruma Cevap Ver
guvencan | 12 Ağustos 2008 Salı 19:45
g&uuml;sell:) <br/>


Bu Yoruma Cevap Ver
missblackmail | 12 Ağustos 2008 Salı 17:18
&nbsp;


Bu Yoruma Cevap Ver
missblackmail | 12 Ağustos 2008 Salı 17:17
olmuşmu harbii bi deneim nerde benim gitarım<br/>


Bu Yoruma Cevap Ver
nurgül | 12 Ağustos 2008 Salı 02:50
<p>&ccedil;ok g&uuml;zel devam....<br/>
<br/>
</p>


Bu Yoruma Cevap Ver
rico_bjk | 11 Ağustos 2008 Pazartesi 15:37
s&uuml;pper olmuş bu eline sağlıkk


Bu Yoruma Cevap Ver
mystery_13 | 09 Ağustos 2008 Cumartesi 14:48
biliyordum bunu g&uuml;zel ger&ccedil;ekten"/fck/editor/images/smiley/msn/wink_smile.gif" alt=""/><br/>
<br/>


Bu Yoruma Cevap Ver
[Kertemeyenkele | 08 Ağustos 2008 Cuma 12:32
g&uuml;zelmiş


Bu Yoruma Cevap Ver
xcancano | 08 Ağustos 2008 Cuma 10:40
g&uuml;zel olmuş ellerine sağlık


Bu Yoruma Cevap Ver
örnek | 06 Ağustos 2008 Çarşamba 18:38
iyi iyi<br/>


Bu Yoruma Cevap Ver
aytacc16 | 31 Temmuz 2008 Perşembe 15:02
s&uuml;per olmuş &ccedil;ok sağolun "/fck/editor/images/smiley/msn/thumbs_up.gif" alt=""/><br/>


Bu Yoruma Cevap Ver
dkilly | 26 Temmuz 2008 Cumartesi 20:05
S&uuml;per Olmuş Bende Bu Ara Soloyu &Ccedil;ıkarmıştım Aynısı Gibi Olmuş Ellerine Sağlık<br/>


Bu Yoruma Cevap Ver
CeM KaRaCa | 26 Temmuz 2008 Cumartesi 18:30
<p>gusel gusel</p>
<p>&nbsp;</p>


Bu Yoruma Cevap Ver
mca_ua | 26 Temmuz 2008 Cumartesi 12:03
<p>g&uuml;zel olmuş tşkler</p>


Bu Yoruma Cevap Ver
gitarist05 | 24 Temmuz 2008 Perşembe 21:15
emeğine sağlık&nbsp; teşekk&uuml;rler g&uuml;selll olmuş :)


Bu Yoruma Cevap Ver
özqeren | 24 Temmuz 2008 Perşembe 20:28
valla g&uuml;zel severim bu şarkıyı zaten:D"/fck/editor/images/smiley/msn/wink_smile.gif" alt=""/>


Bu Yoruma Cevap Ver
ayışığıı | 24 Temmuz 2008 Perşembe 16:18
G&Uuml;ZEL OLMUŞ ELİNE SAĞLIK<br/>


Bu Yoruma Cevap Ver
merdaneci | 24 Temmuz 2008 Perşembe 10:36
s&uuml;per&nbsp; dha bska sarkılarada el atmalısın...."/fck/editor/images/smiley/msn/thumbs_up.gif" alt=""/>


Bu Yoruma Cevap Ver
..:DumaN:.. | 24 Temmuz 2008 Perşembe 00:35
olmusss devamm....


Bu Yoruma Cevap Ver
adsızkitar | 24 Temmuz 2008 Perşembe 00:27
yorum beykliyorum beyler


Bu Yoruma Cevap Ver
leke | 23 Temmuz 2008 Çarşamba 20:36


Siz de Görüş Bildirin

Yorum yazma alanı Akor Merkezi üyelerine özel bir bölümdür. (Giriş Yap / Üye Ol / Şifremi Hatırlat)


PAYLAŞ

Reklam



Anket
Geitarist soruyor:
Sizce gitarda F notasına en yakın nota hangisi ?













Sonuçlar | Sonuçlar & Yorumlar
Yeni Anket | Anketler




Reklam


Radyo Dinle
AkorMerkezi.com © 2014
İletişim - Gizlilik Politikası - Kullanım Koşulları - Kurallar - Son Yorumlar - Rastgele

GitarAkor.com kolonisidir. Derleme 0,11 saniye.