Akor Tab Söz Çeviri Anasayfası
Akor|Tab|Söz|Nota Arşivi
Gitar Akorları | Tab,Söz ve Nota Anasayfası | En Yeni Şarkılar | En Popüler Şarkılar | Akor Cetveli

Bilgiler
 
Seslendiren ve Şarkı: Duman - İçerim Ben Bu Akşam
Biçim: TAB - SOLO
Tarih: 24 Mart 2012 Cumartesi
Gönderen: ImHoly
Toplam Okuyan: 6.827 kişi
Bu Ay Okuyan: 289 kişi
Bu Hafta Okuyan: 81 kişi
 
Beğendiniz mi? İçerim Ben Bu Akşam Tab sayfasını Şimdi paylaşın:

Duman - İçerim Ben Bu Akşam - Tab

  (versiyon 3)
Puanlama:
 (8 kişi)

İçerim Ben Bu Akşam şarkısının diğer versiyonlarına bakın >>

Metin boyutu: ( + Büyült ) ( - Küçült)   
E|-------------------------|
B|-0-7-5-3-5-2-3-5-2-0-----|
G|-------------------------|
D|-------------------------|
A|-------------------------|
E|-------------------------|

E|-------------------------|
B|-7-5-3-5-2-3-5-5---------|
G|-------------------------|
D|-------------------------|
A|-------------------------|
E|-------------------------|

E|-------------------------|
B|-7-5-3-5-2-3-5-2-0-------|
G|-------------------------|
D|-------------------------|
A|-------------------------|
E|-------------------------|

E|-------------------------|
B|-3-2-0-3--2-0-0-0--------|
G|-------------------------|
D|-------------------------|
A|-------------------------|
E|-------------------------|


İçerim Ben Bu Akşam Tab, AkorMerkezi.com'da yayınlanmıştır.
http://www.akormerkezi.com


İçerik Kısa Linki:


Beğendiniz mi? İçerim Ben Bu Akşam Tab sayfasını Şimdi paylaşın:


İçerim Ben Bu Akşam şarkısı için amatör kayıtları dinleyin: (Siz de Ekleyin)

İçerim Ben Bu Akşam Tab için Komoçotoko'dan Gelenler
Aramalar: iceeim.ben tab, içerim ben bu akşam gitarda nota akor merkezi, içerim ben nota, duman içerim ben bu aksam, duman içerim ben bu akşam tab, duman içerim en kolay tab, duman tab içerim, icerim ben bu aksam akormerkezi, duman - içerim bu akşam, duman icerim ben akor
Duman - İçerim Ben Bu Akşam için Kullanıcı Görüşleri

Henüz buraya yazan çizen olmamış. Yorum yapmak için buraya tıklayabilirsiniz.


Siz de Görüş Bildirin

Yorum yazma alanı Akor Merkezi üyelerine özel bir bölümdür. (Giriş Yap / Üye Ol / Şifremi Hatırlat)


PAYLAŞ

Reklam



Anket
miand soruyor:
Çalınması en kolay müzik aleti nedir?









Sonuçlar | Sonuçlar & Yorumlar
Yeni Anket | Anketler




Reklam


Radyo Dinle
AkorMerkezi.com © 2014
İletişim - Gizlilik Politikası - Kullanım Koşulları - Kurallar - Son Yorumlar - Rastgele

GitarAkor.com kolonisidir. Derleme 0,05 saniye.