Akor Tab Söz Çeviri Anasayfası
Akor|Tab|Söz|Nota Arşivi
Gitar Akorları | Tab,Söz ve Nota Anasayfası | En Yeni Şarkılar | En Popüler Şarkılar | Akor Cetveli

Bilgiler
 
Seslendiren ve Şarkı: Duman - Senden Daha Güzel
Biçim: TAB - SOLO
Tarih: 15 Mart 2009 Pazar
Gönderen: ns_fth
Toplam Okuyan: 157.061 kişi
Bu Ay Okuyan: 1.660 kişi
Bu Hafta Okuyan: 243 kişi
 
Beğendiniz mi? Senden Daha Güzel Tab sayfasını Şimdi paylaşın:

Duman - Senden Daha Güzel - Tab


Puanlama:
 (94 kişi)

Senden Daha Güzel şarkısının diğer versiyonlarına bakın >>

Metin boyutu: ( + Büyült ) ( - Küçült)   
E|---5--5--5--5---7--7--7--7------------------------------|
B|---5--5--5--5---7--7--7--7------------------------------|
G|---5--5--5--5---7--7--7--7------------------------------|
D|---5--5--5--5---7--7--7--7------------------------------|
A|---x--x--x--x---x--x--x--x------------------------------|
E|---x--x--x--x---x--x--x--x------------------------------|

SÖZLER İLE BERABER...


E|----------------------------------------------------------------|
B|---7-7-7-9-10-9(X)--12-10-9-10(X)-------------------------------|
G|----------------------------------------------------------------|
D|----------------------------------------------------------------|
A|----------------------------------------------------------------|
E|----------------------------------------------------------------|

SOLO 1.KISIM


E|----------------------------------------------------------------|
B|---7-5-7-5-3^(2KERE)-9-7-9-7-5^--11-9-11-9-7^-------------------|
G|----------------------------------------------------------------|
D|----------------------------------------------------------------|
A|----------------------------------------------------------------|
E|----------------------------------------------------------------|

SOLO 2.KISIM

ARKADASLAR AKLIMDA OLDUGU KADAR BU HEPİNİZE KOLAY GELSİN...
Senden Daha Güzel Tab, AkorMerkezi.com'da yayınlanmıştır.
http://www.akormerkezi.com


İçerik Kısa Linki:


Beğendiniz mi? Senden Daha Güzel Tab sayfasını Şimdi paylaşın:


Senden Daha Güzel şarkısı için amatör kayıtları dinleyin: (Siz de Ekleyin)

Senden Daha Güzel Tab için Komoçotoko'dan Gelenler
Aramalar: Senden Daha Güzel (Duman), en güzel akor tab, sendden daha guzel tab, kolay sololar tab, duman senden daha guzel elektro gitar tabları, solo klasik gitar tab, senden+daha+güzel+akor+tab, senden daha guzel bas tabları akor merkezı, akormerkezi duman senden daha guzel tab, klasik solo tab
Duman - Senden Daha Güzel için Kullanıcı Görüşleri

18 Aralık 2013 Çarşamba tarihinde GiTaRiSTaRıK yazmıştı:
05 Ocak 2013 Cumartesi tarihinde Forever MusicaL yazmıştı:
10 Kasım 2012 Cumartesi tarihinde ipo.tek yazmıştı:
15 Şubat 2012 Çarşamba tarihinde 123123441 yazmıştı:
04 Şubat 2012 Cumartesi tarihinde sing yazmıştı:
03 Nisan 2010 Cumartesi tarihinde ner10line yazmıştı:
e------------------------7-5----------------------------------------
b---------5-5-5-7-8-7------8-7-8-----5-5-5-7-8-7-5-4-5-4---
g-------------------------------------------------------------------5


arkadaşlar ben böyle çıkardım




bu sanki olmuş
SÜPER OLMUŞ
çok güzel olmuş
süper
çok sağol süper COOL
Saol :D
Haha hahaha


Bu Yoruma Cevap Ver
abucubu3302 | 06 Nisan 2014 Pazar 21:17
Bence e------0-0-0-0--2-3-2---------7-5-3-2-3--------0-0-0-0--2-3-2---- e----0---------0
b---------4--------0-1


Bu Yoruma Cevap Ver
abucubu3302 | 06 Nisan 2014 Pazar 21:17
ya benim şarkının hepsini çalmam lazım ama elimde tab yok yardımcı olabilirmisiniz? lütfen çok acill



Bu Yoruma Cevap Ver
ertangzmn | 10 Ocak 2014 Cuma 17:45
05 Ocak 2013 Cumartesi tarihinde Forever MusicaL yazmıştı:
10 Kasım 2012 Cumartesi tarihinde ipo.tek yazmıştı:
15 Şubat 2012 Çarşamba tarihinde 123123441 yazmıştı:
04 Şubat 2012 Cumartesi tarihinde sing yazmıştı:
03 Nisan 2010 Cumartesi tarihinde ner10line yazmıştı:
e------------------------7-5----------------------------------------
b---------5-5-5-7-8-7------8-7-8-----5-5-5-7-8-7-5-4-5-4---
g-------------------------------------------------------------------5


arkadaşlar ben böyle çıkardım




bu sanki olmuş
SÜPER OLMUŞ
çok güzel olmuş
süper
çok sağol süper COOL
Saol :D


Bu Yoruma Cevap Ver
GiTaRiSTaRıK | 18 Aralık 2013 Çarşamba 18:28
bende soloyu şu şekilde çıkardım ama.;
E)...............................................................
B)5-5-5-5-7-8-7....7-5-7.....5-5-5-5-7-8-7-5-4-5-4-0-2
G)................7-5...........................................

Kaynak: 'http://www.akormerkezi.com/duman-senden-daha-guzel-akor_sarki-jjlrtl.html'>http://www.akormerkezi.com/duman-senden-daha-guzel-akor_sarki-jjlrtl.html


Bu Yoruma Cevap Ver
furkicun | 29 Mayıs 2013 Çarşamba 19:33
solo tam uymuyor,


Bu Yoruma Cevap Ver
1358 | 19 Şubat 2013 Salı 17:53
10 Kasım 2012 Cumartesi tarihinde ipo.tek yazmıştı:
15 Şubat 2012 Çarşamba tarihinde 123123441 yazmıştı:
04 Şubat 2012 Cumartesi tarihinde sing yazmıştı:
03 Nisan 2010 Cumartesi tarihinde ner10line yazmıştı:
e------------------------7-5----------------------------------------
b---------5-5-5-7-8-7------8-7-8-----5-5-5-7-8-7-5-4-5-4---
g-------------------------------------------------------------------5


arkadaşlar ben böyle çıkardım




bu sanki olmuş
SÜPER OLMUŞ
çok güzel olmuş
süper
çok sağol süper COOL


Bu Yoruma Cevap Ver
Forever MusicaL | 05 Ocak 2013 Cumartesi 00:12
15 Şubat 2012 Çarşamba tarihinde 123123441 yazmıştı:
04 Şubat 2012 Cumartesi tarihinde sing yazmıştı:
03 Nisan 2010 Cumartesi tarihinde ner10line yazmıştı:
e------------------------7-5----------------------------------------
b---------5-5-5-7-8-7------8-7-8-----5-5-5-7-8-7-5-4-5-4---
g-------------------------------------------------------------------5


arkadaşlar ben böyle çıkardım




bu sanki olmuş
SÜPER OLMUŞ
çok güzel olmuş
süper


Bu Yoruma Cevap Ver
ipo.tek | 10 Kasım 2012 Cumartesi 16:26
04 Şubat 2012 Cumartesi tarihinde sing yazmıştı:
03 Nisan 2010 Cumartesi tarihinde ner10line yazmıştı:
e------------------------7-5----------------------------------------
b---------5-5-5-7-8-7------8-7-8-----5-5-5-7-8-7-5-4-5-4---
g-------------------------------------------------------------------5


arkadaşlar ben böyle çıkardım




bu sanki olmuş
SÜPER OLMUŞ
çok güzel olmuş


Bu Yoruma Cevap Ver
123123441 | 15 Şubat 2012 Çarşamba 21:11
03 Nisan 2010 Cumartesi tarihinde ner10line yazmıştı:
e------------------------7-5----------------------------------------
b---------5-5-5-7-8-7------8-7-8-----5-5-5-7-8-7-5-4-5-4---
g-------------------------------------------------------------------5


arkadaşlar ben böyle çıkardım




bu sanki olmuş
SÜPER OLMUŞ


Bu Yoruma Cevap Ver
sing | 04 Şubat 2012 Cumartesi 15:43
03 Nisan 2010 Cumartesi tarihinde ner10line yazmıştı:
e------------------------7-5----------------------------------------
b---------5-5-5-7-8-7------8-7-8-----5-5-5-7-8-7-5-4-5-4---
g-------------------------------------------------------------------5


arkadaşlar ben böyle çıkardım




bu sanki olmuş
SÜPER OLMUŞ


Bu Yoruma Cevap Ver
sing | 04 Şubat 2012 Cumartesi 15:43
29 Haziran 2009 Pazartesi tarihinde berkay298 yazmıştı:
e------------------------7-5----------------------------------------
b---------5-5-5-7-8-7------8-7-8-----5-5-5-7-8-7-5-4-5-4---
g-------------------------------------------------------------------5


arkadaşlar ben böyle çıkardım
Çok güzel kardeş eline sağlık..


Bu Yoruma Cevap Ver
dumancıyız | 01 Şubat 2012 Çarşamba 11:54
çok kötü başı filan bence

----------------------------------------------------------------
----------------------------------------------------------------
----------------------------------------------------------------
----------------------------------------------------------------
--------6--6--6--6--8--8--8--8--6--6--6--6--8--8--8--8
--------4--4--4--4--6--6--6--6--4--4--4--4--6--6--6--6
gibi olmalıydı


Bu Yoruma Cevap Ver
Alpix | 21 Ocak 2012 Cumartesi 14:57
29 Haziran 2009 Pazartesi tarihinde berkay298 yazmıştı:
e------------------------7-5----------------------------------------
b---------5-5-5-7-8-7------8-7-8-----5-5-5-7-8-7-5-4-5-4---
g-------------------------------------------------------------------5


arkadaşlar ben böyle çıkardım
olmuş bence eline sağlık..


Bu Yoruma Cevap Ver
hbatuhan | 16 Ocak 2012 Pazartesi 13:58
akor doğru soloda aşağıda arkadaşın yazdığı gibi ikinci telden 555 787 konser videolarını izlerseniz anlarsınız solodan önce batu 9-10-9-10-9-10-9-10--10-12-10-12-10-12-10-12 die devam ediyor en son soloda 12-12-12-12-12-14-15-14-19-17-15-14-15 orjinaldir


Bu Yoruma Cevap Ver
scarface49 | 16 Eylül 2011 Cuma 20:10
eh idare eder kardeşim. emeğine sağlık


Bu Yoruma Cevap Ver
Lonely.Day | 11 Ağustos 2011 Perşembe 22:59
Birkaç yanlış var ama gerisi güzel olmuş.


Bu Yoruma Cevap Ver
berkil | 21 Haziran 2011 Salı 15:35
bncede biraz ktü ama fena :P


Bu Yoruma Cevap Ver
rock coce | 05 Eylül 2010 Pazar 17:14
bare basar gibi basıcaksın çarpı olan tellerede vurmıcaksın


Bu Yoruma Cevap Ver
OguzcanY. | 07 Temmuz 2010 Çarşamba 18:21
Bu aynı anda nasıl 5. perdeye basıyoruz ve çarpılar ne anlama geliyor bilgi verebilecek olan vra mı??


Bu Yoruma Cevap Ver
duygu95 | 30 Haziran 2010 Çarşamba 10:19
b---------------------------------12-10-------------------------------------
g---------9-9-9-9-11-12-11------------12-11-12-------9-9-9-9-11-12-11----9-8-9-8
d----------------------------------------------------------------------------------------------10

böyle olucak özür dilerim.


Bu Yoruma Cevap Ver
CiRKiN_KRaL | 07 Haziran 2010 Pazartesi 18:22
e---------------------------------12-10-------------------------------------
b---------9-9-9-9-11-12-11------------12-11-12-------9-9-9-9-11-12-11----9-8-9-8
g----------------------------------------------------------------------------------------------10

Orjinaldir beyler buyrun.


Bu Yoruma Cevap Ver
CiRKiN_KRaL | 07 Haziran 2010 Pazartesi 18:21
29 Haziran 2009 Pazartesi tarihinde berkay298 yazmıştı:
e------------------------7-5----------------------------------------
b---------5-5-5-7-8-7------8-7-8-----5-5-5-7-8-7-5-4-5-4---
g-------------------------------------------------------------------5


arkadaşlar ben böyle çıkardım
bence gayet güzel olmuş eline sağlık ...


Bu Yoruma Cevap Ver
hasan077 | 10 Nisan 2010 Cumartesi 22:06
e------------------------7-5----------------------------------------
b---------5-5-5-7-8-7------8-7-8-----5-5-5-7-8-7-5-4-5-4---
g-------------------------------------------------------------------5


arkadaşlar ben böyle çıkardım




bu sanki olmuş


Bu Yoruma Cevap Ver
ner10line | 03 Nisan 2010 Cumartesi 20:51
03 Ekim 2009 Cumartesi tarihinde bekocomtr yazmıştı:
31 Ağustos 2009 Pazartesi tarihinde soulofthenight yazmıştı:
usta sallamışsın resmen yaa
gıcık gıcık cevap vermeyin adam uğraşmış bende anlamadım ama emeğe saygı gösterin lütfen ya
ya adam doğru düzgün çkarsın o zaman


Bu Yoruma Cevap Ver
m.alihan | 09 Mart 2010 Salı 13:42
31 Ağustos 2009 Pazartesi tarihinde soulofthenight yazmıştı:
usta sallamışsın resmen yaa
gıcık gıcık cevap vermeyin adam uğraşmış bende anlamadım ama emeğe saygı gösterin lütfen ya


Bu Yoruma Cevap Ver
bekocomtr | 03 Ekim 2009 Cumartesi 13:41
İki şeye deyineceğim.
1-) Olmamışta Olmamış diyorsunuz siz çıkarın o zaman!
2-)Adam yinede uğraşmış.Bari istediğimiz gibi değil diyin de kimse ne üzülsün ne de bu işten soğusun...

Bence de olmamış ama yinede eline sağlık...


Bu Yoruma Cevap Ver
Sk8ter_Boi | 08 Eylül 2009 Salı 18:42
usta sallamışsın resmen yaa


Bu Yoruma Cevap Ver
soulofthenight | 31 Ağustos 2009 Pazartesi 20:16
e------------------------7-5----------------------------------------
b---------5-5-5-7-8-7------8-7-8-----5-5-5-7-8-7-5-4-5-4---
g-------------------------------------------------------------------5


arkadaşlar ben böyle çıkardım


Bu Yoruma Cevap Ver
berkay298 | 29 Haziran 2009 Pazartesi 22:37
klasik gitar olduguna emin misin:SS:S:S:SS


Bu Yoruma Cevap Ver
cahmex | 11 Mayıs 2009 Pazartesi 19:59
malesef :S


Bu Yoruma Cevap Ver
Drift City | 02 Mayıs 2009 Cumartesi 14:32
hiç bişey anlamadım ,bu kötü olmuşşş!!!


Bu Yoruma Cevap Ver
mrt_69-y | 30 Nisan 2009 Perşembe 22:55
cık :(


Bu Yoruma Cevap Ver
ogi666 | 24 Nisan 2009 Cuma 15:41
olmamıs :S


Bu Yoruma Cevap Ver
bek | 23 Mart 2009 Pazartesi 17:48
vallaha olmamış


Bu Yoruma Cevap Ver
elserko | 17 Mart 2009 Salı 03:57
olmamıl sanki?


Bu Yoruma Cevap Ver
..:DumaN:.. | 16 Mart 2009 Pazartesi 16:41
solo tam uymuyor sanki :S


Bu Yoruma Cevap Ver
royalgriffin | 16 Mart 2009 Pazartesi 07:50


Siz de Görüş Bildirin

Yorum yazma alanı Akor Merkezi üyelerine özel bir bölümdür. (Giriş Yap / Üye Ol / Şifremi Hatırlat)


PAYLAŞ

Reklam



Anket
alter_bridger soruyor:
Swing EZ1 iyi bir gitar mı?








Sonuçlar | Sonuçlar & Yorumlar
Yeni Anket | Anketler




Reklam


Radyo Dinle
AkorMerkezi.com © 2014
İletişim - Gizlilik Politikası - Kullanım Koşulları - Kurallar - Son Yorumlar - Rastgele

GitarAkor.com kolonisidir. Derleme 0,11 saniye.