Akor Tab Söz Çeviri Anasayfası
Akor|Tab|Söz|Nota Arşivi
Gitar Akorları | Tab,Söz ve Nota Anasayfası | En Yeni Şarkılar | En Popüler Şarkılar | Akor Cetveli

Bilgiler
 
Seslendiren ve Şarkı: Duman - Senden Daha Güzel
Biçim: TAB - SOLO
Tarih: 23 Mayıs 2009 Cumartesi
Gönderen: qartal
Toplam Okuyan: 62.917 kişi
Bu Ay Okuyan: 1.674 kişi
Bu Hafta Okuyan: 1 kişi
 
Beğendiniz mi? Senden Daha Güzel Tab sayfasını Şimdi paylaşın:

Duman - Senden Daha Güzel - Tab

  (versiyon 9)
Puanlama:
 (111 kişi)

Senden Daha Güzel şarkısının diğer versiyonlarına bakın >>

Metin boyutu: ( + Büyült ) ( - Küçült)   
e------------------------5/7-5---------------------------------------
b------5-5-5--5--7-8-7---------8-7-8----5-5-5--5--7-8-7---5--4--5-4--
g-------------------------------------------------------------------5
a--------------------------------------------------------------------
d--------------------------------------------------------------------
E--------------------------------------------------------------------


e------------------------5/7-5---------------------------------------
b------5-5-5--5--7-8-7---------8-7-8----5-5-5--5--7-8-7---5--4--5-4--
g-------------------------------------------------------------------5
a--------------------------------------------------------------------
d--------------------------------------------------------------------
E--------------------------------------------------------------------


e---------------------------------7--5--7-5----5--7--8-7---11--12--14
b--5--4--5-4-------8--7--8-7-5--------------8------------------------
g------------5-------------------------------------------------------
a--------------------------------------------------------------------
d--------------------------------------------------------------------
E--------------------------------------------------------------------



                                                       
                                                        Burak AKÇA
    
Senden Daha Güzel Tab, AkorMerkezi.com'da yayınlanmıştır.
http://www.akormerkezi.com


İçerik Kısa Linki:


Beğendiniz mi? Senden Daha Güzel Tab sayfasını Şimdi paylaşın:


Senden Daha Güzel şarkısı için amatör kayıtları dinleyin: (Siz de Ekleyin)

Senden Daha Güzel Tab için Komoçotoko'dan Gelenler
Aramalar: senden daha güzel klasik gitar solo, senden daha güzel akor versiyon 1, senden daha guzel full tab, en guzel sarkilar tab, güzel şarkı tab, duman senden daha güzel gitar notaları, duman senden daha güzel solo şarkı, senden daha güzel gitar tab, senden daha gzel gitar, duman senden daha güzel tab solo
Duman - Senden Daha Güzel için Kullanıcı Görüşleri

Çok güzel kardeşim saol.


Bu Yoruma Cevap Ver
Akormania | 24 Ocak 2014 Cuma 16:10
çok iyi olmuş eline sağlık saol :))


Bu Yoruma Cevap Ver
serkankKaya | 31 Mart 2013 Pazar 12:25
muhteşem yazmışsın helal olsun ellerine sağlık


Bu Yoruma Cevap Ver
123789456 | 01 Şubat 2013 Cuma 11:58
bi kaç hata var ama ellerine sağlık kardeş!...


Bu Yoruma Cevap Ver
zDumanForEverz | 21 Aralık 2011 Çarşamba 15:18
son partın değil de

7--5--7-5----5--7--8-7-
-------------8--------------


7--5--7-5-----5--7--8-7--
------------7-8-------------- olması bana göre daha iyi bir deneyin


Bu Yoruma Cevap Ver
R2n | 19 Ekim 2011 Çarşamba 15:03
çok hoş.


Bu Yoruma Cevap Ver
James-root | 10 Temmuz 2011 Pazar 13:23
çok güzel kardeşim eline sağlık :)


Bu Yoruma Cevap Ver
Rock Forever W | 25 Mayıs 2011 Çarşamba 20:03
sağol kardeşim eline sağlık


Bu Yoruma Cevap Ver
вяку αη∂ яσ¢к | 18 Mayıs 2011 Çarşamba 22:47
harika olmuş emeğine sağlık


Bu Yoruma Cevap Ver
gitarist_6161 | 07 Aralık 2010 Salı 00:07
08 Nisan 2010 Perşembe tarihinde abatay yazmıştı:
-----5/7-5-------- ------7-5-------
-------------8-7-8 YERİNE -----------8-7-8

yapınca daha iyi oluyo sanki
boşlukları kırpmış pek anlaşılmıyo galiba ,
-----5/7-5--------
-------------8-7-8
YERİNE
------7-5-------
-----------8-7-8

yazmak istemiştim


Bu Yoruma Cevap Ver
abatay | 08 Nisan 2010 Perşembe 02:53
-----5/7-5-------- ------7-5-------
-------------8-7-8 YERİNE -----------8-7-8

yapınca daha iyi oluyo sanki


Bu Yoruma Cevap Ver
abatay | 08 Nisan 2010 Perşembe 02:52
Guzel olmus.


Bu Yoruma Cevap Ver
GokoMoko | 20 Mart 2010 Cumartesi 19:17
Gayet güzel oluyor ellerine sağlık hocam...


Bu Yoruma Cevap Ver
ask? | 03 Şubat 2010 Çarşamba 19:17
13 Ocak 2010 Çarşamba tarihinde qitarist01 yazmıştı:
arkadaşlar sanki en sonundaki 5-7-8-7-11-12-14 yerine 5-7-7-8-7-7-11-12-14 yapınca tam oluyor galiba :)
arkadaşlar bu tab orjinal studyo tabıdır.üzerine boş şeyler ekliyip durmayın!


Bu Yoruma Cevap Ver
qartal | 20 Ocak 2010 Çarşamba 12:40
arkadaşlar sanki en sonundaki 5-7-8-7-11-12-14 yerine 5-7-7-8-7-7-11-12-14 yapınca tam oluyor galiba :)


Bu Yoruma Cevap Ver
qitarist01 | 13 Ocak 2010 Çarşamba 18:34
04 Kasım 2009 Çarşamba tarihinde weROCK yazmıştı:
çok iyi olmuşda bunu şarkının hangi kısmında çalcaz sürekli giden bir solo var bunu şarkı boyunca tekrarmı edicez yardım lütfen :S
şarkının ortasında sözlerin bitiiği bi yerde dinlersen bulursun...


Bu Yoruma Cevap Ver
qartal | 08 Kasım 2009 Pazar 14:17
çok iyi olmuşda bunu şarkının hangi kısmında çalcaz sürekli giden bir solo var bunu şarkı boyunca tekrarmı edicez yardım lütfen :S


Bu Yoruma Cevap Ver
weROCK | 04 Kasım 2009 Çarşamba 22:37
neresi yanlış ya da yanlış düşündüğün bir yer var mı?


Bu Yoruma Cevap Ver
qartal | 25 Eylül 2009 Cuma 18:48
budayanlıs.... daha çözemedim


Bu Yoruma Cevap Ver
infant | 25 Eylül 2009 Cuma 15:39
diğer arkadaşlar sonunu yanlış yapmış,ben düzelttim böyle bişe çıktı.beğendiyseniz ne mutlu bana!!
(:


Bu Yoruma Cevap Ver
qartal | 07 Eylül 2009 Pazartesi 23:01
çok güzel...


Bu Yoruma Cevap Ver
burak033 | 07 Eylül 2009 Pazartesi 22:56
08 Haziran 2009 Pazartesi tarihinde s_dnz yazmıştı:
süper olmuş emeğine sağlık.........
teşekkürler


Bu Yoruma Cevap Ver
qartal | 13 Haziran 2009 Cumartesi 21:46
süper olmuş emeğine sağlık.........


Bu Yoruma Cevap Ver
s_dnz | 08 Haziran 2009 Pazartesi 22:34


Siz de Görüş Bildirin

Yorum yazma alanı Akor Merkezi üyelerine özel bir bölümdür. (Giriş Yap / Üye Ol / Şifremi Hatırlat)


PAYLAŞ

Reklam



Anket
kemalx77 soruyor:
Favori Müzik Grubun?













Sonuçlar | Sonuçlar & Yorumlar
Yeni Anket | Anketler




Reklam


Radyo Dinle
AkorMerkezi.com © 2014
İletişim - Gizlilik Politikası - Kullanım Koşulları - Kurallar - Son Yorumlar - Rastgele

GitarAkor.com kolonisidir. Derleme 0,05 saniye.