Akor Tab Söz Çeviri Anasayfası
Akor|Tab|Söz|Nota Arşivi
Gitar Akorları | Tab,Söz ve Nota Anasayfası | En Yeni Şarkılar | En Popüler Şarkılar | Akor Cetveli

Bilgiler
 
Seslendiren ve Şarkı: Duman - Yürek
Biçim: TAB - INTRO
Tarih: 13 Eylül 2013 Cuma
Gönderen: Bornovalıı 35,5
Toplam Okuyan: 34.828 kişi
Bu Ay Okuyan: 676 kişi
Bu Hafta Okuyan: 148 kişi
 
Beğendiniz mi? Yürek Tab sayfasını Şimdi paylaşın:

Duman - Yürek - Tab


Puanlama:
 (8 kişi)

Yürek şarkısının diğer versiyonlarına bakın >>

Metin boyutu: ( + Büyült ) ( - Küçült)   
    Em
E|----------------|----------------|----------------|----------------|----------------|
B|----------------|----------------|----------------|----------------|----------------|
G|----------------|----------------|----------------|----------------|----------------|
D|----------------|----2--4-5-7----|-9p7-9h10-7-5---|-7p5-7h9--5-4---|-5p4-5h7--4-2-4-|
A|----------------|-2--------------|----------------|----------------|----------------|
E|--12/-----------|-0--------------|----------------|----------------|----------------|


    Em
E|----------------|----------------|----------------|----------------|
B|----------------|----------------|----------------|----------------|
G|----------------|----------------|----------------|----------------|
D|----2--4-5-7----|-9p7-9h10-7-5---|-7p5-7h9--5-4---|-5p4-5h7--4-5/2-|
A|-2--------------|----------------|----------------|----------------|
E|-0--------------|----------------|----------------|----------------|          




Hatalarım varsa söyleyin arkadaşlar
Mehmet Onat 

Yürek Tab, AkorMerkezi.com'da yayınlanmıştır.
http://www.akormerkezi.com


İçerik Kısa Linki:


Beğendiniz mi? Yürek Tab sayfasını Şimdi paylaşın:



Yürek Tab için Komoçotoko'dan Gelenler
Aramalar: yürek duman tab, duman yurek chords, duman yürek tsb, duman klasik gitar tabları, duman y?rek akor vevtab, duman ,yürek tab, duman yurek gitar tablari, duman yùrek gitar akor, akormerkezi duman tab, yürek tab akor merkez i
Duman - Yürek için Kullanıcı Görüşleri

16 Kasım 2013 Cumartesi tarihinde Bornovalıı 35,5 yazmıştı:
E|----------------|-------------------|----------------------|--------------------|--------------------
B|----------------|-------------------|----------------------|--------------------|--------------------|
G|----------------|------------0-----|-2---4p3-4h5--4-0-|-2p0-2h4--0---- -|--------------------|
D|----------------|----2--4------ ---|----------------------|-----------------4--|-5p4--5h7-4--2/4|
A|----------------|-2-----------------|----------------------|--------------------|--------------------|
E|--12/----------|-0-----------------|----------------------|--------------------|--------------------|

Orjinali budur arkadaşlar bkz : ver 5
DÜZELTME : ver 4


Bu Yoruma Cevap Ver
Bornovalıı 35,5 | 18 Ağustos 2014 Pazartesi 02:09
31 Mart 2014 Pazartesi tarihinde Çağrl yazmıştı:
P li olanları nasıl çalacağız yardım eder misiniz
tekniğin adı pull off penayı kullanmadan parmagınızla geri çekiyorsunuz internetten videolarına bakarak daha açık bi şekilde öğrenebilirsiniz. Ayrıca orjinal tablarını ver4 te paylaştım, bilginize


Bu Yoruma Cevap Ver
Bornovalıı 35,5 | 18 Ağustos 2014 Pazartesi 02:08
P li olanları nasıl çalacağız yardım eder misiniz


Bu Yoruma Cevap Ver
Çağrl | 31 Mart 2014 Pazartesi 16:59
08 Ekim 2013 Salı tarihinde 07herlqelexx yazmıştı:
p leri ne manada kullandın
pull of


Bu Yoruma Cevap Ver
washburnpro | 03 Ocak 2014 Cuma 21:39
E|----------------|-------------------|----------------------|--------------------|--------------------
B|----------------|-------------------|----------------------|--------------------|--------------------|
G|----------------|------------0-----|-2---4p3-4h5--4-0-|-2p0-2h4--0---- -|--------------------|
D|----------------|----2--4------ ---|----------------------|-----------------4--|-5p4--5h7-4--2/4|
A|----------------|-2-----------------|----------------------|--------------------|--------------------|
E|--12/----------|-0-----------------|----------------------|--------------------|--------------------|

Orjinali budur arkadaşlar bkz : ver 5


Bu Yoruma Cevap Ver
Bornovalıı 35,5 | 16 Kasım 2013 Cumartesi 11:10
08 Ekim 2013 Salı tarihinde 07herlqelexx yazmıştı:
p leri ne manada kullandın
pull of


Bu Yoruma Cevap Ver
Bornovalıı 35,5 | 08 Ekim 2013 Salı 22:56
p leri ne manada kullandın


Bu Yoruma Cevap Ver
07herlqelexx | 08 Ekim 2013 Salı 21:52


Siz de Görüş Bildirin

Yorum yazma alanı Akor Merkezi üyelerine özel bir bölümdür. (Giriş Yap / Üye Ol / Şifremi Hatırlat)


PAYLAŞ

Reklam



Anket
MeTaLFaN soruyor:
Gerçek Metalci kime denir?










Sonuçlar | Sonuçlar & Yorumlar
Yeni Anket | Anketler






Radyo Dinle
AkorMerkezi.com © 2014
İletişim - Gizlilik Politikası - Kullanım Koşulları - Kurallar - Son Yorumlar - Rastgele

GitarAkor.com kolonisidir. Derleme 0,05 saniye.