Akor Tab Söz Çeviri Anasayfası
Akor|Tab|Söz|Nota Arşivi
Gitar Akorları | Tab,Söz ve Nota Anasayfası | En Yeni Şarkılar | En Popüler Şarkılar | Akor Cetveli

Bilgiler
 
Seslendiren ve Şarkı: Emel Sayın - İntizar
Biçim: Akor, Gitar Akorları -
Tarih: 29 Eylül 2007 Cumartesi
Gönderen: cleanfamilyboy
Toplam Okuyan: 6.488 kişi
Bu Ay Okuyan: 140 kişi
Bu Hafta Okuyan: 15 kişi
 
Beğendiniz mi? İntizar Akor sayfasını Şimdi paylaşın:
DİKKAT!
İntizar Akor sayfasını düzgün görüntüleyemiyor olabilirsiniz.
Eğer böyle bir sıkıntınız varsa tıklayın.

Emel Sayın - İntizar - Akor


Puanlama:
 (0 kişi)

İntizar şarkısının diğer versiyonlarına bakın >>

Metin boyutu: ( + Büyült ) ( - Küçült)   
e-------------------------------------------------------------------------------
---
B-------------------------------------------------------------------------------
----
G-------------------------------------------------------------------------------
----
D--2-3-5-3-2-0-2-----------------------------------------------------2-3-5-3-2-0
-2--
A--------------------------2-3-5-7--5-3-2----------2-3-5-7-8-7-8----------------
----
E-------------------0-------------------------0---------------------------------
----

e-------------------------------------------------------------------------------
----
B-------------------------------------------------------------------------------
----
G-------------------------------------------------------------------------------
----
D-2-3-2-0-----------------------------------------------------------------------
----
A------------320------2-3-5-3-2-0---------2-3-5-3-2-0---------------------------
----
E-----------------------------------3-------------------3----5----7----5-7-9-7-5
-3-2


E                      Am
sakın bir söz söyleme, yüzüme bakma sakın   

G                  F                  E     
sesini duyan olur, sana göz koyan olur.

E                    Am
düşmanımdır seni kim bulursa cana yakın

G                  F                  E
annen bile okşasa, benim bağrım taş olur.


E                    Am
dilerim tanrı'dan ki sana açık kucaklar

G                  F                  E
bir daha kapanmadan kara toprakla dolsun

E                    Am
anmasınlar adını; candan anan dudaklar

G                  F                  E
sana benim gözümle bakan gözler kör olsun 

Not:İlk 2 mısrayı arpejle çalınız.. p-i-m-a-m-i-m-a
Ritm: Vala ben klasik bi ritm kullanmıyorum.
kulagınıza nasıl hoş gelirse..zaten profesyonel bir 
çalışma değil ama ses iyiyse sorun kalmaz....





İntizar Akor, AkorMerkezi.com'da yayınlanmıştır.
http://www.akormerkezi.com


İçerik Kısa Linki:


Beğendiniz mi? İntizar Akor sayfasını Şimdi paylaşın:


Emel Sayın - İntizar KULLANILAN AKORLAR (Beta)
E0 2 2 1 0 0x 7 6 4 5 0
Amx 0 2 2 1 0x 0 7 5 5 5x 3 2 2 1 0
Gx 10 12 12 12 103 2 0 0 0 33 2 0 0 3 3
F1 3 3 2 1 1x 0 3 2 1 1x 3 3 2 1 1
Şarkıda kullanılan akorların farklı şekillerde basılışlarıdır. (Detaylı bilgi)

İntizar Akor için Komoçotoko'dan Gelenler
Aramalar: intizar annen bile okşasa indir, annem bile okşasa indir, intizar şarkısı gitar ritmi, emel sayın intizar sözleri, intizar emel sayin indir, emel sayın intizar indir, annen bile okşasa gitar akorları, intizar tab akor, intizar emel sayin dinle, annen bile okwasa benim bagrim
Emel Sayın - İntizar için Kullanıcı Görüşleri

konser şarkım :p emeğine sağlıkk=)


Bu Yoruma Cevap Ver
sweetnovember91 | 23 Kasım 2008 Pazar 12:55


Siz de Görüş Bildirin

Yorum yazma alanı Akor Merkezi üyelerine özel bir bölümdür. (Giriş Yap / Üye Ol / Şifremi Hatırlat)


PAYLAŞ

Reklam



Anket
utkuca soruyor:
Sizce...










Sonuçlar | Sonuçlar & Yorumlar
Yeni Anket | Anketler




Reklam


Radyo Dinle
AkorMerkezi.com © 2014
İletişim - Gizlilik Politikası - Kullanım Koşulları - Kurallar - Son Yorumlar - Rastgele

GitarAkor.com kolonisidir. Derleme 0,07 saniye.