Akor Tab Söz Çeviri Anasayfası
Akor|Tab|Söz|Nota Arşivi
Gitar Akorları | Tab,Söz ve Nota Anasayfası | En Yeni Şarkılar | En Popüler Şarkılar | Akor Cetveli

Bilgiler
 
Seslendiren ve Şarkı: Emel Sayın - Nasıl Geçti Habersiz
Biçim: TAB - HİÇBİRİ
Tarih: 25 Mart 2009 Çarşamba
Gönderen: kilgazli
Toplam Okuyan: 14.102 kişi
Bu Ay Okuyan: 126 kişi
Bu Hafta Okuyan: 28 kişi
 
Beğendiniz mi? Nasıl Geçti Habersiz Tab sayfasını Şimdi paylaşın:

Emel Sayın - Nasıl Geçti Habersiz - Tab


Puanlama:
 (48 kişi)

Nasıl Geçti Habersiz şarkısının diğer versiyonlarına bakın >>

Metin boyutu: ( + Büyült ) ( - Küçült)   
e-------------------------------------------------------------------------------------
B--------0---1---0-----1---0--------0---------0-----------------------0---------------
G--1--2-------------2---------2--1-----2---1-----------1-----------------1----2----1--
D-----------------------------------------------2--3-----3--2--0--3--------3----3----2
A-------------------------------------------------------------------------------------
E-------------------------------------------------------------------------------------




e-------------------------------------------------------0--0--2--------------
B-----------------0--0--1--3--0---0------0--1--3--2--3----------3--2--3--1--0
G------1--2--1--2---------------2---1--2-------------------------------------
D-2--3-----------------------------------------------------------------------
A----------------------------------------------------------------------------
E----------------------------------------------------------------------------



e--0----------------------0-----------------------------------------------------
B----3--2--3--1--0--3--3----1--0--1----1--0--1--3--0-----0-----0-----------------
G-----------------------------------2-----------------2-----1-----1-----2-----1--
D-------------------------------------------------------------------3-----3----2
A-------------------------------------------------------------------------------
E-------------------------------------------------------------------------------




e-0--0--0--0--0--0--0--2-----------------------------------------0-----------------
B-------------------------3--2--3--1--0--0--3--3--3--3--3--3--3-----1--0--1--0-----
G------------------------------------------------------------------------------2--2
D----------------------------------------------------------------------------------
A----------------------------------------------------------------------------------
E----------------------------------------------------------------------------------
(Başa Dön)

Beyler Kendim Çıkarttım KuLaktan yanlışım varsa belirtin hiç biryerden alıntı değildir 
Nasıl Geçti Habersiz Tab, AkorMerkezi.com'da yayınlanmıştır.
http://www.akormerkezi.com


İçerik Kısa Linki:


Beğendiniz mi? Nasıl Geçti Habersiz Tab sayfasını Şimdi paylaşın:


Nasıl Geçti Habersiz Tab için Komoçotoko'dan Gelenler
Aramalar: emel sayın akor, nasıl geçti habersiz nota ali, nasıl geçti o habersiz tab, nasil geçti haberrsiz nota, muazzez ersoy nasıl geçti habersiz akor, nasıl geçti habersiz o güzelim yıllarım tab, nasılda geçti habersiz, muazzez ersoy nasıl geçti habersiz akorları, nasıl geçti habersiz akor nota, nasil gecti habersiz tb
Emel Sayın - Nasıl Geçti Habersiz için Kullanıcı Görüşleri

süperr


Bu Yoruma Cevap Ver
dadaş_25 | 16 Şubat 2013 Cumartesi 22:59
22 Temmuz 2012 Pazar tarihinde orjinal akça yazmıştı:
gerçektür süper olmuş,saolasın
gerçekten diyecektim:)


Bu Yoruma Cevap Ver
orjinal akça | 22 Temmuz 2012 Pazar 12:15
gerçektür süper olmuş,saolasın


Bu Yoruma Cevap Ver
orjinal akça | 22 Temmuz 2012 Pazar 12:14
tebrikler. boyle tabların yuklenmesi lazım ama onune gelen birşey koyup şişiriyor siteyi.


Bu Yoruma Cevap Ver
sessizz1 | 24 Mayıs 2012 Perşembe 22:05
Çok güzel olmuş


Bu Yoruma Cevap Ver
Alone.Dark | 23 Eylül 2011 Cuma 18:56
süper olmuş..


Bu Yoruma Cevap Ver
timekiller | 26 Haziran 2011 Pazar 23:30
harbiden on numara çıkarmışsın


Bu Yoruma Cevap Ver
geneci | 14 Nisan 2011 Perşembe 22:45
supreme.. bu kadar begenmemizin nedeni; arkadaşın emeği bir yana, bizde parçanın çok sağlam bir duygusal altyapıya sahip olması da var. sadelik içeren nostaljik bir şaheser


Bu Yoruma Cevap Ver
hardman345 | 11 Şubat 2011 Cuma 23:23
süper olmuş. ellerine sağlık


Bu Yoruma Cevap Ver
m_tekin | 26 Haziran 2010 Cumartesi 00:55
müthiş


Bu Yoruma Cevap Ver
avazB | 02 Mart 2010 Salı 20:38
gördüğüm en güzel tablardan biri ellerine sağlık süper olmuş


Bu Yoruma Cevap Ver
Majoris | 01 Mart 2010 Pazartesi 22:24
Eksiksiz, mükemmel helal olsun


Bu Yoruma Cevap Ver
ozc55 | 25 Ocak 2010 Pazartesi 01:38
süpersin


Bu Yoruma Cevap Ver
adem190383 | 19 Aralık 2009 Cumartesi 15:01
yaa gerçekten ben böle bişi görmedim çok güzel olmuş ellerine sağlık kulağına sağlık


Bu Yoruma Cevap Ver
bekocomtr | 03 Ekim 2009 Cumartesi 13:33
Mukemmel olmus ellerine saglık (:


Bu Yoruma Cevap Ver
niqhtmare_queen | 27 Eylül 2009 Pazar 12:07
süper olmuş tşk ederiz böyle güzel tablardan bizi mahrum etme başkalarınıda bekliyoruz


Bu Yoruma Cevap Ver
romantik_kiz | 25 Ağustos 2009 Salı 14:28
04 Nisan 2009 Cumartesi tarihinde alohaa yazmıştı:
güzel olmus yanız ilk kısmda cıkartırken eksiklik hissediyorum ama bulmadm ne eksik ellerine sağlık dier kısım lar cok güzel olmus tesekkürler
baba manyaksın v alla hangi parça üzreinde çalışıon söle bi


Bu Yoruma Cevap Ver
samet71 | 04 Haziran 2009 Perşembe 18:35
süper


Bu Yoruma Cevap Ver
seagirlsera | 12 Nisan 2009 Pazar 10:35
çok güzel olmuş arkadaşım devamını bekleriz başarılar ;)


Bu Yoruma Cevap Ver
dark_133 | 06 Nisan 2009 Pazartesi 17:44
saolun bir şarkı üzerinde daha çalışıyorum ilk kısımda susma var yani kendim farkediyom şuan onu belirtemedim bir ses susuyorum ben çalarken


Bu Yoruma Cevap Ver
sag0 | 05 Nisan 2009 Pazar 23:03
güzel olmus yanız ilk kısmda cıkartırken eksiklik hissediyorum ama bulmadm ne eksik ellerine sağlık dier kısım lar cok güzel olmus tesekkürler


Bu Yoruma Cevap Ver
alohaa | 04 Nisan 2009 Cumartesi 13:28
tebrik ederim uğraşıp bizimle paylaştğn içinde çok çok tşk ederim süper olmuş devamını yani başka şarkılarıda bekliyoruz senden...


Bu Yoruma Cevap Ver
romantik_kiz | 02 Nisan 2009 Perşembe 18:55
eline sağlık çok güzel olmuş


Bu Yoruma Cevap Ver
tazugur | 29 Mart 2009 Pazar 16:20
[b] teşekkür ederim 1 haftamı aldı [/b]


Bu Yoruma Cevap Ver
kilgazli | 28 Mart 2009 Cumartesi 22:47
güzel olmus eksik yok


Bu Yoruma Cevap Ver
ESAS_MECAZ | 28 Mart 2009 Cumartesi 22:40


Siz de Görüş Bildirin

Yorum yazma alanı Akor Merkezi üyelerine özel bir bölümdür. (Giriş Yap / Üye Ol / Şifremi Hatırlat)


PAYLAŞ

Reklam



Anket
ea27 soruyor:
En iyi Duman Solosu hangisi ?













Sonuçlar | Sonuçlar & Yorumlar
Yeni Anket | Anketler




Reklam


Radyo Dinle
AkorMerkezi.com © 2014
İletişim - Gizlilik Politikası - Kullanım Koşulları - Kurallar - Son Yorumlar - Rastgele

GitarAkor.com kolonisidir. Derleme 0,04 saniye.