Akor Tab Söz Çeviri Anasayfası
Akor|Tab|Söz|Nota Arşivi
Gitar Akorları | Tab,Söz ve Nota Anasayfası | En Yeni Şarkılar | En Popüler Şarkılar | Akor Cetveli

Bilgiler
 
Seslendiren ve Şarkı: Emre Aydın - Afili Yalnızlık
Biçim: TAB -
Tarih: 31 Ekim 2006 Salı
Gönderen: ohara
Toplam Okuyan: 28.466 kişi
Bu Ay Okuyan: 418 kişi
Bu Hafta Okuyan: 46 kişi
 
Beğendiniz mi? Afili Yalnızlık Tab sayfasını Şimdi paylaşın:

Emre Aydın - Afili Yalnızlık - Tab


Puanlama:
 (11 kişi)

Afili Yalnızlık şarkısının diğer versiyonlarına bakın >>

Metin boyutu: ( + Büyült ) ( - Küçült)   
                intro walla


e---------------------------------------------------------------
b---------------------------------------------------------------
g---------------------------------------------------------------
d---------------------------------------------------------------
a----7-6-7-3-6-3-6-3/2-o-7-6-7-3-6-3-6-3/2-o--------------------
e---------------------------------------------------------------


e--------------------------------------------------------------------------------
b--------------------------------------------------------------------------------
g--------------------------------------------------------------------------------
d---9-9-9-9-7-7/5-5-5-5^3-3/2x-9-9-9-9-7-7/5-5-5-5/3-3-5/7-----------------------
a--------------------------------------------------------------------------------
e--------------------------------------------------------------------------------

Afili Yalnızlık Tab, AkorMerkezi.com'da yayınlanmıştır.
http://www.akormerkezi.com


İçerik Kısa Linki:


Beğendiniz mi? Afili Yalnızlık Tab sayfasını Şimdi paylaşın:


Afili Yalnızlık Tab için Komoçotoko'dan Gelenler
Aramalar: Emre Aydın - Afili Yalnızlık, afiri yanlızlık tab, afili yalnızlık notaları melodika, afili karanlık emre aydın, gitarda emre aydin afilli yalnizlik tab, afili yalnizlik akor ve tap, afilli yalnızlık gitar notaları, afilli yalnızlık gitar solo, afiri yanlızlık, afilli yanlizlik gitar solo
Emre Aydın - Afili Yalnızlık için Kullanıcı Görüşleri

04 Kasım 2006 Cumartesi tarihinde zayl yazmıştı:
arkadaş denemiş olmamış daha iyisini siz yapın. ne lan man fln hangi dağda yaşıyorsunuz?
lütfen sizin yaptığınızı da gösterirmisiniz nasıl bi bakalım doğruyu öğrenelim


Bu Yoruma Cevap Ver
onurmehmet | 23 Haziran 2012 Cumartesi 11:44
27 Haziran 2008 Cuma tarihinde memo* yazmıştı:
bu sitede daha bi tane doğru tab bulamadım 

"/fck/editor/images/smiley/msn/angry_smile.gif" alt=""/>
emin misin çünkü sahne alırken hep buranın tablarını kullandım


Bu Yoruma Cevap Ver
debby | 20 Nisan 2012 Cuma 20:02
11 Ekim 2007 Perşembe tarihinde bonuzz yazmıştı:

e---------------------------------------------------------------
b---------------------------------------------------------------
g---------------------------------------------------------------
d---------------------------------------------------------------
A---7----5---7------3-----5----2-----3----2----0----------
e---------------------------------------------------------------



e--------------------------------------------------------------------------------
b--------------------------------------------------------------------------------
g--------------------------------------------------------------------------------
d---9-9-9-9-7-7/5-5-5-5 3-3-2-2/2x-9-9-9-9-7-7/5-5-5-5/3-3-9-9--7-------
a--------------------------------------------------------------------------------
e-------------------------------------------------------------------------------

arkadaşlar intronun doğrusu bu
bencede doğrusu bu


Bu Yoruma Cevap Ver
TheClown | 15 Haziran 2011 Çarşamba 14:34
25 Ocak 2009 Pazar tarihinde ARDA995 yazmıştı:
6 lar 5 olucak arkadaşım.
kesinlikle. 6'lar 5 olmalı.


Bu Yoruma Cevap Ver
faqo | 19 Haziran 2009 Cuma 23:58
Nasıl 4 tane 9 oluyor arkadaşım sen kafanda soloyu yeniden uyarlamışın bu ne be! insaf bi soloyu dinleyin!


Bu Yoruma Cevap Ver
sarafan331 | 18 Şubat 2009 Çarşamba 15:37
6 lar 5 olucak arkadaşım.


Bu Yoruma Cevap Ver
ARDA995 | 25 Ocak 2009 Pazar 20:59
arkadaş sadece 6 diğil 5 olcak bitti abartmayın gayet güzel eline sağlık
kulaksız arkadaşlar beğenmemiş herlde


Bu Yoruma Cevap Ver
herenya_quende | 13 Aralık 2008 Cumartesi 21:35
arkadaşlar o 6 değil 5 olcak sorun orda


Bu Yoruma Cevap Ver
mahzen03 | 21 Kasım 2008 Cuma 20:58
o kötü olmuş anlamıyorum falan diyenler bişey bilmediklerinden anlamadıklarından kızım siz gerizeklısın bu site olmasaydı ne yapacaktınız o zaman üye olmasaydınızbir tanede gerizekalıda sandelyeyi kafasındamı kıracakmış artık ne yapacakmışta


Bu Yoruma Cevap Ver
özgünüm | 08 Kasım 2008 Cumartesi 16:24
ya arkadaşlar bu hangi tür gitarlar için geçerli


Bu Yoruma Cevap Ver
DARK SIDE | 23 Eylül 2008 Salı 17:20
akoru yokmu bunu yaa slolo istemiyorum ben


Bu Yoruma Cevap Ver
weysel | 25 Temmuz 2008 Cuma 19:44
arkadaşlar bana yardım edecek var mı?


Bu Yoruma Cevap Ver
gitarist_17 | 04 Temmuz 2008 Cuma 16:00
bu sitede daha bi tane doğru tab bulamadım 

"/fck/editor/images/smiley/msn/angry_smile.gif" alt=""/>


Bu Yoruma Cevap Ver
memo* | 27 Haziran 2008 Cuma 12:16

kral, mındar etmişsin şarkıyı...



Bu Yoruma Cevap Ver
RomitoeS | 21 Haziran 2008 Cumartesi 16:59
bişi anladıysam ne oliyim :D ark. katılıyorum bunu çalarsam değil sandalye gitarı kafamda parçalarlar sahnede rencide ederler xD


Bu Yoruma Cevap Ver
mersinlie33 | 07 Haziran 2008 Cumartesi 21:32
:D ellerine sağlık dicemde nedir ki bu böle çalarsam kafama sandalye atarlar


Bu Yoruma Cevap Ver
Wampiria | 01 Haziran 2008 Pazar 15:41
emre aydını çok seviyorum.çok yakışıklı.şakrı tablarınıda çok güzel vermişler.teşekkürler


Bu Yoruma Cevap Ver
PUNK ROCKK | 13 Nisan 2008 Pazar 09:47
berbat


Bu Yoruma Cevap Ver
gitar99 | 27 Mart 2008 Perşembe 17:36
kardes sende kusura bakma ama senın ıntroya bıraz calısman lazım okey emegıne saglık ama no ıntro


Bu Yoruma Cevap Ver
muratatagitar | 12 Mart 2008 Çarşamba 22:28
arkıler ıntronun dogrusu veya yanlısı nerden cıkıyor anla mıyorum bende baska yerden calıyorum ıntroyu
yanı burada notanın onemı var ama su dandık yorum yazan arkadaslar once nota okumasını ogrensınler sarkıyla beraber nota okusunlar sonra yorum yazsınlar onemlı olan burada nota okumak zaten sen nota okumasını bılırsen ıstedıgın notadan ıntro cıkartırsın okey bılgınıze sunarım arkadaslar


Bu Yoruma Cevap Ver
muratatagitar | 12 Mart 2008 Çarşamba 22:21
:S yha kafam karıştı hangisini çalcamm


Bu Yoruma Cevap Ver
cikstr | 30 Kasım 2007 Cuma 19:02
olmamıs be abi


Bu Yoruma Cevap Ver
dumankolik | 13 Kasım 2007 Salı 22:26
berbat bu ne boyle yhaa bu sarkıyı kendin mi besteledin =)


Bu Yoruma Cevap Ver
dumankolik | 13 Kasım 2007 Salı 22:25

e---------------------------------------------------------------
b---------------------------------------------------------------
g---------------------------------------------------------------
d---------------------------------------------------------------
A---7----5---7------3-----5----2-----3----2----0----------
e---------------------------------------------------------------



e--------------------------------------------------------------------------------
b--------------------------------------------------------------------------------
g--------------------------------------------------------------------------------
d---9-9-9-9-7-7/5-5-5-5 3-3-2-2/2x-9-9-9-9-7-7/5-5-5-5/3-3-9-9--7-------
a--------------------------------------------------------------------------------
e-------------------------------------------------------------------------------

arkadaşlar intronun doğrusu bu


Bu Yoruma Cevap Ver
bonuzz | 11 Ekim 2007 Perşembe 15:21
arkadaslar sanki bana böyle olması gerekio gibi geldi

e---5-3-5-1-3-0-1-0------7-8-7-5-5-5-3-3-3-1-1-0--7-8-7-5-5-5-3-3-3-1-1-0--8-7
b--------------------------3--------------------------------------------------------------------------



Bu Yoruma Cevap Ver
wacker | 12 Ağustos 2007 Pazar 22:06
yanlış


Bu Yoruma Cevap Ver
kskn | 10 Mayıs 2007 Perşembe 15:15
Sercanın dediği gibi daha doğru geldi banada orda ufak bi hata var ;)


Bu Yoruma Cevap Ver
badboyyashiro | 07 Mayıs 2007 Pazartesi 11:34
valla soloda harbiden sorun var


Bu Yoruma Cevap Ver
mus18 | 06 Mayıs 2007 Pazar 11:23
a--7 5 7 3 5 2 3 2 0


Bu Yoruma Cevap Ver
cilekess | 15 Nisan 2007 Pazar 14:36
bu ne yhaa


Bu Yoruma Cevap Ver
LuciFer_5gr | 04 Nisan 2007 Çarşamba 17:49
kardeş d telini nie kullanmayı denemedin çok kasar bilmeyen birini nasıl olsa arada 5 ses yok mu


Bu Yoruma Cevap Ver
mus18 | 25 Şubat 2007 Pazar 12:33
1/777 7/555 5/333 3/1

7 5 7 3 5 2 3 2 0 e telinde bu kadar


Bu Yoruma Cevap Ver
gitar_manyak | 05 Şubat 2007 Pazartesi 10:50
yaptıklarını notaya dokün bunların hepsi sallama

şarkının akorları soloyu veriyo zaten


Bu Yoruma Cevap Ver
lewbo | 29 Ocak 2007 Pazartesi 14:46
kulaktanı mı var bunun Emre Aydın da böyle çalıyo... aynı tuşlar..


Bu Yoruma Cevap Ver
ozanbaris | 04 Ocak 2007 Perşembe 20:00
kulaktan olmuş ama ben begenmedim


Bu Yoruma Cevap Ver
brewhart | 24 Aralık 2006 Pazar 17:04
kulaktan olmuş ama ben begenmedim


Bu Yoruma Cevap Ver
brewhart | 24 Aralık 2006 Pazar 17:04
6. telden
--12--10--12--8--10--7--8--7--5---
deneyin bi de?
=)) kolay gelsin


Bu Yoruma Cevap Ver
üye-silinmiş | 16 Aralık 2006 Cumartesi 20:49
tesekkürler kardeşim eline sağlık


Bu Yoruma Cevap Ver
the boogeyman | 10 Aralık 2006 Pazar 02:47
evet 5


Bu Yoruma Cevap Ver
the boogeyman | 10 Aralık 2006 Pazar 02:37
arkadaslar bu tab okumayi hala cozemedım
nota seklide olsa
klasik gitar caliyoz , hala pop gıtari cozemedık ya
:PPPPPPPPPPPPPPPP


Bu Yoruma Cevap Ver
üye-silinmiş | 29 Kasım 2006 Çarşamba 15:30
altılar 5 olcak ta dinlerken bi şy dikkatimi çekti 2. bölüm akor la basılmıcak mı orayı nerden bulabiliris


Bu Yoruma Cevap Ver
baykus87 | 26 Kasım 2006 Pazar 15:08
dogru ya 6 lar bes olucak..


Bu Yoruma Cevap Ver
doktorkun | 24 Kasım 2006 Cuma 20:21
vallaha yanlış nota var altılar beş olacak ;) yani reee ben öle çalıorum ama genel olarak güzek tebrikler


Bu Yoruma Cevap Ver
fenderist | 22 Kasım 2006 Çarşamba 22:25
vallaha yanlış nota var altılar beş olacak ;) yani reee ben öle çalıorum


Bu Yoruma Cevap Ver
fenderist | 22 Kasım 2006 Çarşamba 22:24
ya bu o kadar zor deilmiş . yeni baslayan biri olarak sölüom


Bu Yoruma Cevap Ver
brave113 | 22 Kasım 2006 Çarşamba 14:35
birisi yardım etsiin !!!!!!!!!!!!!!!!!!!!!! lütfen


Bu Yoruma Cevap Ver
puren | 21 Kasım 2006 Salı 22:31
ya ben beceremedim yardım edin yaa


Bu Yoruma Cevap Ver
puren | 21 Kasım 2006 Salı 22:25
abi orda 2. defa 6 bastığımız yerde 5 bastığımızda daha güzel oluyor dene istersen


Bu Yoruma Cevap Ver
üye-silinmiş | 20 Kasım 2006 Pazartesi 22:24
abi orda 2. defa 6 bastığımız yerde 5 bastığımızda daha güzel oluyor dene istersen


Bu Yoruma Cevap Ver
üye-silinmiş | 20 Kasım 2006 Pazartesi 22:24
abi orda 2 defa 6 bastığımız yerde 5 bastığımızda daha güzel oluyor dene istersen


Bu Yoruma Cevap Ver
üye-silinmiş | 20 Kasım 2006 Pazartesi 22:24
afiLLi yaLnızLık 4 tercihim :)


Bu Yoruma Cevap Ver
IshN | 17 Kasım 2006 Cuma 23:50
adresimi alsınlar die cnm


Bu Yoruma Cevap Ver
serci | 14 Kasım 2006 Salı 22:24
bunlar doğrumu


Bu Yoruma Cevap Ver
direc_t | 14 Kasım 2006 Salı 17:10
iii de şarkı çok harika emre aydın yapmış yani andam.millet 6.cadde de tanımıyosu şimdi kimsenin ağzından düşmüyo.


Bu Yoruma Cevap Ver
angel_21 | 13 Kasım 2006 Pazartesi 19:48
niye sadece geyik olsun diye yorum yazıyosunuz ki


Bu Yoruma Cevap Ver
papatya18 | 13 Kasım 2006 Pazartesi 19:13
=) ehu ruhunuzdan metal eksık olmasın bol bol ıspanak yeın arkadısler :D


Bu Yoruma Cevap Ver
edda. | 13 Kasım 2006 Pazartesi 13:21
arkadaşlar MeTaL HeP RuHuNuZdA oLsUn.........


Bu Yoruma Cevap Ver
beren | 12 Kasım 2006 Pazar 13:50
gzl olmamıs cok kotu calıs calıs bnce :D


Bu Yoruma Cevap Ver
Shockwave | 11 Kasım 2006 Cumartesi 15:07
çok fena yanlış hemde:)


Bu Yoruma Cevap Ver
idilogossssssss | 11 Kasım 2006 Cumartesi 11:48
yanlış, doğrusunu yazdım yakında eklenir... yine de arkadaşın emeğine sağlık


Bu Yoruma Cevap Ver
üye-silinmiş | 11 Kasım 2006 Cumartesi 03:29
yanlış..


Bu Yoruma Cevap Ver
zEky | 10 Kasım 2006 Cuma 20:31
arkadaşım,iyidinle yanlış!!


Bu Yoruma Cevap Ver
onur_01 | 08 Kasım 2006 Çarşamba 13:29
Kardeş emeğine sağlık ama 7-6 değil 7-5 olcak La daki bass solo ayrıca tiz soloyu da mi den 7. telden başlarsan daha doğru bir soloya ulaşıcağına eminim..... Kolay gelsin....


Bu Yoruma Cevap Ver
Mozi | 07 Kasım 2006 Salı 15:00
bence de yanlış ugur abi sende bunların notqa şeklindeki haki war mı yoq sa da emegine sağlık


Bu Yoruma Cevap Ver
bu h ra n | 06 Kasım 2006 Pazartesi 21:58
abi emege saygı lutfen


Bu Yoruma Cevap Ver
qeerym | 06 Kasım 2006 Pazartesi 11:18
2 kere olcak falan filan anlarsınız:D


Bu Yoruma Cevap Ver
ke$mekeS | 05 Kasım 2006 Pazar 16:23
yanlış abi bu
e:-------------------------------------------------------------------------------------------------------------------------------------------------
b:--------------------------12-12-12-13-12-10-10-10-8-8-8-6-6-5/12-12-12-13-12-10-10-10-8-8-8-6(kaydır)12-10--
g:---------------------------------------------------------------------------------------------------------------------------------------------------
d:--------------------------------------------------------------------------------------------------------------------------------------------------
a:7-5-7-3-5-2-3-2-0-------------------------------------------------------------------------------------------------------------------------
e:------------------------------------------------------------------------------------------------------------------------------------------------


Bu Yoruma Cevap Ver
ke$mekeS | 05 Kasım 2006 Pazar 16:22
Helal olsun cok güzel cıkarmıssın hayran olduk sana.. bence atla gitarınla pencereden...


Bu Yoruma Cevap Ver
jaga26 | 05 Kasım 2006 Pazar 13:22
neyse emeğe saygı diyerekten bi dahaki sefere yine de saol


Bu Yoruma Cevap Ver
GARBIN | 05 Kasım 2006 Pazar 12:20
arkadaş denemiş olmamış daha iyisini siz yapın. ne lan man fln hangi dağda yaşıyorsunuz?


Bu Yoruma Cevap Ver
zayl | 04 Kasım 2006 Cumartesi 20:32
yanlış hepinizinki böyle tabmı olur yanlış yerden çok uğraşmalısınız bu kadar kolay parçayı çıkaramıyosunuz yuuh yane başarılar dewam edin doğrsunu bulacaksınızdır sonunda ama


Bu Yoruma Cevap Ver
math_rock | 04 Kasım 2006 Cumartesi 16:48
bunlar Nası okunuyo yani nasi Çalıno

YArDımcı olurmusunuz darkgoldkenjii@gmail.com aDResiM

TeŞekkurLER ŞimdiDen


Bu Yoruma Cevap Ver
darkgoldkenjii | 04 Kasım 2006 Cumartesi 13:16
zeki aynen bende böle cıkardım bu cuk oturuo ya bence de:))


Bu Yoruma Cevap Ver
_DaRe_17 | 01 Kasım 2006 Çarşamba 12:20
yaww eğri büyrü yanlış çıkmış belki böle doğru çıkar..

e]-----------------------||-----------------------|| )
b]---5-3-5-1-3---1-------||---5-3-5-1-3---1-------|| )
g]-------------4---4—2---||-------------4---4—2---|| )
d]-----------------------||-----------------------|| ) solo 1
a]-----------------------||-----------------------|| )
e]-----------------------||-----------------------|| )


e]-1/7-7-7-7/5-5-5/3-3-3-3/1-1-1---||-------------------------|| )
b]---------------------------------||-------------------------|| )
)
xxxxxxxxxxxxxxxxxxxxxxxxxxxxxxxxxxxxxxxxxxxxxxxxxxxxxxxxxxxxxx ) Solo 2
)
e]-1/7-7-7-7/5-5-5/3-3-3-3/1-1-5-7-5-||-----------------------|| )
b]-----------------------------------||-----------------------|| )


Bu Yoruma Cevap Ver
zEky | 31 Ekim 2006 Salı 20:06
ben soloyu yollamıştım ama sanırım kabul edilmemiş söyle olacak arkadaşın dediği doğru intro daha ince tondan.

e]----------------------------||---------------------------|| )
b]---5-3-5-1-3---1-------||---5-3-5-1-3---1-------|| )
g]-------------4---4—2---||-------------4---4—2---|| )
d]---------------------------||----------------------------|| ) solo 1
a]---------------------------||----------------------------|| )
e]---------------------------||----------------------------|| )


e]-1/7-7-7-7/5-5-5/3-3-3-3/1-1-1---||--------------------------------|| )
b]-------------------------------------------||--------------------------------|| )
)
xxxxxxxxxxxxxxxxxxxxxxxxxxxxxxxxxxxxxxxxxxxxxxxxxxxxxxxxxxxxxx ) Solo 2
)
e]-1/7-7-7-7/5-5-5/3-3-3-3/1-1-5-7-5-||----------------------------|| )
b]-----------------------------------------------||----------------------------|| )

kardeş yinede seninde emeğine sağlık...


Bu Yoruma Cevap Ver
zEky | 31 Ekim 2006 Salı 20:04
ya bende cıkardım aynı notalar orda sorun yok da sarkı daga ince tondan bence :)


Bu Yoruma Cevap Ver
_DaRe_17 | 31 Ekim 2006 Salı 19:24
benim çıkardığımın aynısı:D:Deline sağlık yazdığın için..


Bu Yoruma Cevap Ver
qann | 31 Ekim 2006 Salı 16:50
arkadaşlar 6 lar 5 olucak yanlış yazmışım kusura bakmayın darılırım yoksa:)


Bu Yoruma Cevap Ver
üye-silinmiş | 31 Ekim 2006 Salı 01:18


Siz de Görüş Bildirin

Yorum yazma alanı Akor Merkezi üyelerine özel bir bölümdür. (Giriş Yap / Üye Ol / Şifremi Hatırlat)


PAYLAŞ

Reklam



Anket
denizcan2244 soruyor:
Taşıt olarak ne kullanıyorsunuz?











Sonuçlar | Sonuçlar & Yorumlar
Yeni Anket | Anketler




Reklam


Radyo Dinle
AkorMerkezi.com © 2014
İletişim - Gizlilik Politikası - Kullanım Koşulları - Kurallar - Son Yorumlar - Rastgele

GitarAkor.com kolonisidir. Derleme 0,06 saniye.