Akor Tab Söz Çeviri Anasayfası
Akor|Tab|Söz|Nota Arşivi
Gitar Akorları | Tab,Söz ve Nota Anasayfası | En Yeni Şarkılar | En Popüler Şarkılar | Akor Cetveli

Bilgiler
 
Seslendiren ve Şarkı: Erkan Oğur - Zahit Bizi Tan Eyleme
Biçim: Akor, Gitar Akorları - SOLO
Tarih: 29 Mart 2008 Cumartesi
Gönderen: Mithrandiralper
Toplam Okuyan: 8.782 kişi
Bu Ay Okuyan: 191 kişi
Bu Hafta Okuyan: 21 kişi
 
Beğendiniz mi? Zahit Bizi Tan Eyleme Akor sayfasını Şimdi paylaşın:
DİKKAT!
Zahit Bizi Tan Eyleme Akor sayfasını düzgün görüntüleyemiyor olabilirsiniz.
Eğer böyle bir sıkıntınız varsa tıklayın.

Erkan Oğur - Zahit Bizi Tan Eyleme - Akor


Puanlama:
 (2 kişi)


Metin boyutu: ( + Büyült ) ( - Küçült)   

Giriş Kısmı
E--------------------------------------------|----------------------------------
B--------------------------------------------|----------------------------------
G-0-2-2-2-2----------------------------------|----------------------------------
D-----------2-2-3-5-7-5-3-2-0-0-0---2-0-0-0--|-0-0-0-0-----0--------------------
A---------------------------------3----------|---------2-3---2-3-0---0-0-0----0-
E--------------------------------------------|---------------------3--------3---


Gm    Bb      F    Cm       
Zahid Bizi Tan Eyleme  ( Hay Hay )
Cm             Gm                  Bb    Gm               Gm   F    Gm
Hak İsmin Okur Dilimiz (1.nakarat)(Ey canım)--(2.nakarat)(Eyy Ey Dost)
Gm    Bb      F   Cm
Sakın Efsane Söyleme (Hay Hay)
Cm             Gm                  Bb     Gm              Gm   F    Gm
Hazret'e Varır Yolumuz (1.nakarat)(Ey canım)--(2.nakarat)(Eyy Ey Dost)


Sayılmayız Parmağ İle
Tükenmeyiz Kırmağ İle
Taşramızdan Sormağ İle
Kimse Bilmez Ahvalimiz

Erenler Yolun Güderiz
Çekilip Hakk'a Gideriz
Gaza-Yı Ekber Ederiz
İmam Ali'dir Ulumuz 

Erenlerin Çoktur Yolu
Cümlesine Dedik Beli
Gören Bizi Sanır Deli
Usludan Yeğdir Delimiz

Tevhid Eden Deli Olmaz
Allah Deyen Mahrum Kalmaz
Her Seher Açılır Solmaz
Bahara Erer Gülümüz

Muhyi Sana Olan Himmet
Aşık İsen Cana Minnet
Elif Allah Mim Muhammed
Kisvemizdir Dalımız


Arkadaşlar, şarkının ritmi (çıkardığım kadarıyla) 4/4’lük oryantal ritm am
a yavaş hızda çalınacak.Arpej de gayet uyuyor türküye, giriş kısmını bağlama üze
rinden nota olarak çıkardığım için eksikler olabilir, akorları da kendi sesime g
öre ayarladım ondan dolayı transpoze ile daha ince tonda daha güzel çalınabilir.
(Am-G-Dm-C tonlarında daha güzel uyuyor şarkı)Şarkının ilk paragrafı ile aynı şe
kilde devam ediyor diğer kısımları, tüm kısımlara yazmaya üşendim =) Herkese iyi
 çalışmalar dilerim..

Zahit Bizi Tan Eyleme Akor, AkorMerkezi.com'da yayınlanmıştır.
http://www.akormerkezi.com


İçerik Kısa Linki:


Beğendiniz mi? Zahit Bizi Tan Eyleme Akor sayfasını Şimdi paylaşın:


Erkan Oğur - Zahit Bizi Tan Eyleme KULLANILAN AKORLAR (Beta)
Gm3 5 5 3 3 3x x 0 3 3 3
Bb1 1 3 3 3 1x 1 3 3 3 1x x 0 3 3 1
F1 3 3 2 1 1x 0 3 2 1 1x 3 3 2 1 1
Cmx 3 5 5 4 3x x 5 5 4 3
Şarkıda kullanılan akorların farklı şekillerde basılışlarıdır. (Detaylı bilgi)

Zahit Bizi Tan Eyleme Akor için Komoçotoko'dan Gelenler
Aramalar: zahit bizi tan eyleme flüt notaları, zahid bizi tan eyleme hay hay söz, zahit bizi tan eyleme notaları gitar, zahit bizi tan akor, zahit bizi tan eyleme notaları, zahit bizi tan eyleme ,, zahid bizi tan eyleme akorlari, zahit bizi soz, ey zahit şarabı akor ritmi, erkan oğur zahit bizi tan full sözleri
Erkan Oğur - Zahit Bizi Tan Eyleme için Kullanıcı Görüşleri

E--------------------------------------------------------|----------------------------------

B--------------------------------------------------------|----------------------------------

G-0-2-2-2-2------------------------------------------| ----------------------------------

D-----------2-2-3-5-7-5-3-2-0-0-0---2-0-0-0--|----0-0-0------0--------------------

A------------------------------------------3------------|--3--------2-3-----3-2-0----0-0-0----0-

E--------------------------------------------------------|-----------------------------3----------3--- 



Arkadaşlar ilk yazdığım intro kısmında bir iki hata buldum, düzeltilmiş ve doğru olan hali budur...




Bu Yoruma Cevap Ver
Mithrandiralper | 23 Mayıs 2008 Cuma 13:40


Siz de Görüş Bildirin

Yorum yazma alanı Akor Merkezi üyelerine özel bir bölümdür. (Giriş Yap / Üye Ol / Şifremi Hatırlat)


PAYLAŞ

Reklam



Anket
EnesTftk soruyor:
Amatör bir grupta bir kadın solist hangisini daha iyi söyler?












Sonuçlar | Sonuçlar & Yorumlar
Yeni Anket | Anketler




Reklam


Radyo Dinle
AkorMerkezi.com © 2014
İletişim - Gizlilik Politikası - Kullanım Koşulları - Kurallar - Son Yorumlar - Rastgele

GitarAkor.com kolonisidir. Derleme 0,05 saniye.