Akor Tab Söz Çeviri Anasayfası
Akor|Tab|Söz|Nota Arşivi
Gitar Akorları | Tab,Söz ve Nota Anasayfası | En Yeni Şarkılar | En Popüler Şarkılar | Akor Cetveli

Bilgiler
 
Seslendiren ve Şarkı: Film Müzikleri - Godfather
Biçim: TAB - HİÇBİRİ
Tarih: 18 Eylül 2008 Perşembe
Gönderen: tehlike_metal
Toplam Okuyan: 246.772 kişi
Bu Ay Okuyan: 4.276 kişi
Bu Hafta Okuyan: 887 kişi
 
Beğendiniz mi? Godfather Tab sayfasını Şimdi paylaşın:

Film Müzikleri - Godfather - Tab


Puanlama:
 (470 kişi)

Godfather şarkısının diğer versiyonlarına bakın >>

Metin boyutu: ( + Büyült ) ( - Küçült)   
E-------1-0---1---0----------|-------1-0---1---0-------------|
B-----3-----3---3---3---1----|-----3-----3---3---3-----------|
G---2-----------------3---2--|---2-----------------3-2-0-----|
D----------------------------|-------------------------------|
A----------------------------|-------------------------------|
E----------------------------|-------------------------------|


E---------0----------------|---------------------------------|
B-------2----------2-3-----|-------1-----1-------------------|
G---0-3--------0-3---------|---------3-2---3-3-2-2-----------|
D--------------------------|---0-3---------------------------|
A--------------------------|---------------------------------|
E--------------------------|---------------------------------|


E-------------0--------|-------------|-----------------|
B---3-3-2-1-----3------|-----1-------|-----------------|
G-----------------3-2--|---2---2-0---|---0-3-1-2-------|
D----------------------|-------------|-----------------|
A----------------------|-------------|-----------------|
E----------------------|-------------|-----------------|


E-------1-0---1---0----------|-------1-0---1---0-------------|
B-----3-----3---3---3---1----|-----3-----3---3---3-----------|
G---2-----------------3---2--|---2-----------------3-2-0-----|
D----------------------------|-------------------------------|
A----------------------------|-------------------------------|
E----------------------------|-------------------------------|


E---------0------0-3-1-----|---------------------------------|
B-------2--------------3---|-------------1-------------------|
G---0-3--------------------|-------2-3-2---3-3-2-2-----------|
D--------------------------|---0-3---------------------------|
A--------------------------|---------------------------------|
E--------------------------|---------------------------------|

Godfather Tab, AkorMerkezi.com'da yayınlanmıştır.
http://www.akormerkezi.com


İçerik Kısa Linki:


Beğendiniz mi? Godfather Tab sayfasını Şimdi paylaşın:


Godfather Tab için Komoçotoko'dan Gelenler
Aramalar: gatfather guitar tab, god father sarkisi gitar, godfather gitar notaları akormerkezi, god father guitar notes, film muzikleri.tab, father flim tab, baba film gitar tab, godfatheer tab, goth father tab, odfather tab
Film Müzikleri - Godfather için Kullanıcı Görüşleri

18 Eylül 2008 Perşembe tarihinde assda yazmıştı:
eline sağlık harika olmuş<br/>
"/fck/editor/images/smiley/msn/thumbs_up.gif" alt=""/>
gercekten muthis olmus cok begendim


Bu Yoruma Cevap Ver
kevinabi | 13 Ocak 2014 Pazartesi 16:37
şarkıyı çalınca anılarım canlandı


Bu Yoruma Cevap Ver
kardelen-a | 05 Ekim 2013 Cumartesi 21:42
Tek kelimeyler muhteşem emeğine sağlık mükemmel :D


Bu Yoruma Cevap Ver
H4Z4R | 07 Ağustos 2013 Çarşamba 14:27
27 Nisan 2011 Çarşamba tarihinde eskitoprak yazmıştı:
27 Kasım 2010 Cumartesi tarihinde Smokin' Aces yazmıştı:
3-3-2-2 den sonra si teLinde 2-3 oLmaLı bence...
aynen
<b>aynen aynen</b><br/>


Bu Yoruma Cevap Ver
cyelmer | 06 Nisan 2013 Cumartesi 22:58
Çok Güzel Olmuş Ellerine Sağlık :)


Bu Yoruma Cevap Ver
Mhmtrgn | 21 Mart 2013 Perşembe 20:29
harkulade tbrkler


Bu Yoruma Cevap Ver
izzet2239 | 15 Aralık 2012 Cumartesi 12:34
|---------------------------------|
|-------------1-------------------|
|-------2-3-2---3-3-2-2-1-2-------|
|---0-3---------------------------|
|---------------------------------|
|---------------------------------|

BU tamamen dogru bi sonluk oldu..


Bu Yoruma Cevap Ver
Raminn | 24 Temmuz 2012 Salı 22:46
güzel olmuş eline sağlık :)


Bu Yoruma Cevap Ver
bama_boy4 | 17 Temmuz 2012 Salı 02:00
20 Kasım 2011 Pazar tarihinde Some1KillHim yazmıştı:
E|--------------------------------------|
B|-------1-----1-----------------------|
G|---------3-2---3-3-2-2-------------|
D|---0-3---------------------0---------|
A|--------------------------4-----------|
E|--------------------------------------|

|--------------------------------|
|---Devamı Böyle Olabilir---|
Sırf sana teşekkür etmek için üye oldum,2 gündür anlamıyorum bende,nota yanlış saçma sapan gidiyo.


Bu Yoruma Cevap Ver
Turi Giulliano | 03 Temmuz 2012 Salı 17:39
Çok iyi ellerine sağlık


Bu Yoruma Cevap Ver
GuitaritsFurkan | 22 Haziran 2012 Cuma 21:43
ben şöle bulmuştum

----0--3-2-0-3-0-2-0-------
--0----------------------1--3--0


Bu Yoruma Cevap Ver
Ozaka | 10 Nisan 2012 Salı 21:53
27 Mayıs 2010 Perşembe tarihinde ozcnlnya yazmıştı:
---9--12--11--9--12--9--11--9----------------- x2 -----------------------8--11----------8--9--------------------------------------------
-9----------------------------------10---12---9-- ---9--8--7---7---10---------7---10--------------12--10--9--12--10--10----------
---------------------------------------------------- -------------------------------------------------8--------------------------------------
---------------------------------------------------- ---- -----------------------------------------10---------------------------------9---10
----------------------------------------------------- ---- -------------------------------------------------------------------------------------
----------------------------------------------------- -----------------------------------------------------------------------------------------


bu na çalıntı diyenler asıl bu çalıntı her sitede gördüm isterseniz adını vereyim sitenin



Bu Yoruma Cevap Ver
sologuitarx | 04 Nisan 2012 Çarşamba 21:22
05 Şubat 2012 Pazar tarihinde black_man99 yazmıştı:
slash'in çaldığını isteyen varsa yollarım
çok iyi olur :)


Bu Yoruma Cevap Ver
GitaristDeep | 21 Mart 2012 Çarşamba 14:53
slash'in çaldığını isteyen varsa yollarım


Bu Yoruma Cevap Ver
black_man99 | 05 Şubat 2012 Pazar 21:09
çok güzel olmuş kardeşim ellerine sağlık :)


Bu Yoruma Cevap Ver
UmuCan' | 21 Ocak 2012 Cumartesi 21:00
<span style="font-weight: bold;">harika olmuş kardeşim ellerine sağlık<br/>
<br/>
</span>
<pre style="color: black; font-family: courier new;">&nbsp;</pre>


Bu Yoruma Cevap Ver
UmuCan' | 21 Ocak 2012 Cumartesi 20:59
çok güzel olmuş ellerine sağlık. hiç hatan yok :))


Bu Yoruma Cevap Ver
rock_20 | 01 Ocak 2012 Pazar 15:39
Gerçekten mükemmel olmuş elinize sağlık. Çaldığım ilk parça bu (: çaylağım henüz


Bu Yoruma Cevap Ver
RockerDaghan | 05 Aralık 2011 Pazartesi 18:45
E|--------------------------------------|
B|-------1-----1-----------------------|
G|---------3-2---3-3-2-2-------------|
D|---0-3---------------------0---------|
A|--------------------------4-----------|
E|--------------------------------------|

|--------------------------------|
|---Devamı Böyle Olabilir---|


Bu Yoruma Cevap Ver
Some1KillHim | 20 Kasım 2011 Pazar 20:25
ellerine sağlık çok güzel olmuş


Bu Yoruma Cevap Ver
cincikom | 20 Ekim 2011 Perşembe 18:19
ben başka türlü biliyodm ama


Bu Yoruma Cevap Ver
cukolik | 09 Ekim 2011 Pazar 10:39
arkadaşım hata yok mükkemmel


Bu Yoruma Cevap Ver
***fantastic*** | 23 Ağustos 2011 Salı 11:10
eline sağlık kardeşim s&uuml;per olmuş"/fck/editor/images/smiley/msn/thumbs_up.gif" alt=""/><br/>


Bu Yoruma Cevap Ver
***fantastic*** | 22 Ağustos 2011 Pazartesi 18:44
bu tab en basiti.galiba siz slash'ın çaldığını bilmiyosunuz.onun notaları daha ince ve çok daha zor


Bu Yoruma Cevap Ver
SlashHudson | 07 Ağustos 2011 Pazar 15:23
süper olmus kardesim tebrik ederim


Bu Yoruma Cevap Ver
The Dark Guitar | 30 Temmuz 2011 Cumartesi 12:55
basını eklıyp boyle deneyn

E-7-6/7-8--77---2-----7-6/7-8--77----2((son kısmı cıkaramadım onuda sız halledın )


E-----8-11-10-8-11-8-10-8---------------------8-11-10-11-8-10-8-----------------8-11------------------8-9---
B-8------------------------------9-11-8------8------------ --------8-7-6----7-10-----------------7-10----------


E-8-8-7-6----10-8--------- -----7--------------------------------------------------------------------------
B---------------------10-9----9------9--7------7-10-8-9--------------------------------------------------


Bu Yoruma Cevap Ver
yabani3535 | 20 Temmuz 2011 Çarşamba 11:53
basını eklıyp boyle deneyn

E-7-6/7-8--77---2-----7-6/7-8--77----2((son kısmı cıkaramadım onuda sız halledın )


E-----8-11-10-8-11-8---------------------8-11-10-11-8-------------------8-11------------------8-9---
B-8------------------------9-11-8------8--------------------8-7-6----7-10-----------------7-10----------


E-8-8-7-6----10-8--------- -----7--------------------------------------------------------------------------
B---------------------10-9----9------9--7------7-10-8-9--------------------------------------------------


Bu Yoruma Cevap Ver
yabani3535 | 20 Temmuz 2011 Çarşamba 11:51
aradığımı buldum
:) ellerine sağlık kardeş


Bu Yoruma Cevap Ver
kzm.srtkya | 14 Temmuz 2011 Perşembe 19:52
03 Eylül 2010 Cuma tarihinde astkw yazmıştı:
27 Mayıs 2010 Perşembe tarihinde ozcnlnya yazmıştı:
---9--12--11--9--12--9--11--9----------------- x2 -----------------------8--11----------8--9--------------------------------------------
-9----------------------------------10---12---9-- ---9--8--7---7---10---------7---10--------------12--10--9--12--10--10----------
---------------------------------------------------- -------------------------------------------------8--------------------------------------
---------------------------------------------------- ---- -----------------------------------------10---------------------------------9---10
----------------------------------------------------- ---- -------------------------------------------------------------------------------------
----------------------------------------------------- -----------------------------------------------------------------------------------------


Bunun için diycektim güzel oldu diye yanlış oldu..
çok ince ses normalde iyi ama normal sesi kalın daha


Bu Yoruma Cevap Ver
Esesligitarist | 10 Temmuz 2011 Pazar 19:28
07 Haziran 2010 Pazartesi tarihinde son@y yazmıştı:
elinize saglık başından sonuna kadar harika, tek pürüz 3322...orda duruyo sanki
yhaw bu da güzel ama ses çok ince normal sesi o kadar ince deil..!


Bu Yoruma Cevap Ver
Esesligitarist | 10 Temmuz 2011 Pazar 19:27
26 Mart 2009 Perşembe tarihinde tugkun yazmıştı:
24 Mart 2009 Salı tarihinde Metal-Can yazmıştı:
SÜPER tam uyuyo :) :)
süper oluyoooo =)
Gerçekten güzel oluyooo :=)


Bu Yoruma Cevap Ver
NiCKyOq | 21 Haziran 2011 Salı 08:58
Süper olmuş kim yazdı ise ona çok teşekkür ederim:)


Bu Yoruma Cevap Ver
teksas_rodi | 01 Haziran 2011 Çarşamba 12:26
harika olmus beyler


Bu Yoruma Cevap Ver
cebir01 | 20 Mayıs 2011 Cuma 19:55
27 Kasım 2010 Cumartesi tarihinde Smokin' Aces yazmıştı:
3-3-2-2 den sonra si teLinde 2-3 oLmaLı bence...
aynen


Bu Yoruma Cevap Ver
eskitoprak | 27 Nisan 2011 Çarşamba 20:12
muhteşem olmuş (Y)


Bu Yoruma Cevap Ver
Silent Shadow | 30 Mart 2011 Çarşamba 19:00
167 kişi oylamış ve de puanı 5 olduuna g&ouml;re adam doğru tab yerleştirmiş l&uuml;tfen <br/>
"/fck/editor/images/smiley/msn/omg_smile.gif" alt=""/>&nbsp;ayıptır "/fck/editor/images/smiley/msn/omg_smile.gif" alt=""/>


Bu Yoruma Cevap Ver
nicik | 17 Mart 2011 Perşembe 20:26
beğendim gayet güzel yalnız
E---------------------------------------------------------------|
B-------2----------2-3-----|-------1-----1-------------------|
G---0-3--------0-3---------|---------3-2---3-3-2-2--------|
D--------------------------|---0-3----------------------------|
A--------------------------|-----------------------------------|
E--------------------------|-----------------------------------|

tam sonunda si telinde bi kopukluk var orayı düzeltsen tamamen hatasız olacak emeğe saygı


Bu Yoruma Cevap Ver
RooLLing Up | 08 Mart 2011 Salı 18:31
30 Nisan 2010 Cuma tarihinde batuhanx2y yazmıştı:
04 Kasım 2009 Çarşamba tarihinde rock_angel* yazmıştı:
ya uydurma kardeşim bu tab bürsürü yerde war üstelik bundan çok daha eski sitelerde çalıntı bu
ne alaka herif uraşmış
ya saçmalıonuz adamgörüp paylaşmak istedi belki ne önemi var sonçta sen çalabiliosn kardeş


Bu Yoruma Cevap Ver
bekocomtr | 08 Şubat 2011 Salı 12:41
Beyler Tab Doğru. Teşekkür ederiz.


Bu Yoruma Cevap Ver
AlayınaTab | 31 Ocak 2011 Pazartesi 12:20
süper


Bu Yoruma Cevap Ver
selimcan | 10 Ocak 2011 Pazartesi 19:09
süper insan çaldıkça çalası geliyo ;)


Bu Yoruma Cevap Ver
flemnco | 05 Ocak 2011 Çarşamba 00:22
3-3-2-2 den sonra si teLinde 2-3 oLmaLı bence...


Bu Yoruma Cevap Ver
Smokin' Aces | 27 Kasım 2010 Cumartesi 14:36
günde bir kere ;)


Bu Yoruma Cevap Ver
2.kur_adamı | 11 Kasım 2010 Perşembe 21:50
favorim ,


Bu Yoruma Cevap Ver
Mississippi | 08 Kasım 2010 Pazartesi 14:45
güzel


Bu Yoruma Cevap Ver
~ Kisses`<3 | 03 Ekim 2010 Pazar 10:58
27 Mayıs 2010 Perşembe tarihinde ozcnlnya yazmıştı:
---9--12--11--9--12--9--11--9----------------- x2 -----------------------8--11----------8--9--------------------------------------------
-9----------------------------------10---12---9-- ---9--8--7---7---10---------7---10--------------12--10--9--12--10--10----------
---------------------------------------------------- -------------------------------------------------8--------------------------------------
---------------------------------------------------- ---- -----------------------------------------10---------------------------------9---10
----------------------------------------------------- ---- -------------------------------------------------------------------------------------
----------------------------------------------------- -----------------------------------------------------------------------------------------


Bunun için diycektim güzel oldu diye yanlış oldu..


Bu Yoruma Cevap Ver
astkw | 03 Eylül 2010 Cuma 13:37
07 Haziran 2010 Pazartesi tarihinde son@y yazmıştı:
elinize saglık başından sonuna kadar harika, tek pürüz 3322...orda duruyo sanki
Bu güzelmiş gerçekten ama üstte verilen amatörler için ideal ; )


Bu Yoruma Cevap Ver
astkw | 03 Eylül 2010 Cuma 13:35
27 Mayıs 2010 Perşembe tarihinde ozcnlnya yazmıştı:
---9--12--11--9--12--9--11--9----------------- x2 -----------------------8--11----------8--9--------------------------------------------
-9----------------------------------10---12---9-- ---9--8--7---7---10---------7---10--------------12--10--9--12--10--10----------
---------------------------------------------------- -------------------------------------------------8--------------------------------------
---------------------------------------------------- ---- -----------------------------------------10---------------------------------9---10
----------------------------------------------------- ---- -------------------------------------------------------------------------------------
----------------------------------------------------- -----------------------------------------------------------------------------------------


bu güzelmiş


Bu Yoruma Cevap Ver
aliarda | 02 Eylül 2010 Perşembe 22:56
Harika olmuş..
Emege saygı !!


Bu Yoruma Cevap Ver
BurhanYunus28 | 30 Ağustos 2010 Pazartesi 20:56
kopyala yapıştır ama işime yaradı


Bu Yoruma Cevap Ver
llespaull | 19 Ağustos 2010 Perşembe 17:25
3-3-2-2 yerine 3-3-2 yapıp bi üst telde sonrada hızlı bir şekilde 3-2-0 yapın. yani;
-3---3-------2-------------
--------------------3-2-0------

Benim yapabildiğim bu kadar umarım doğrudur . Ki ben çaldığımda tam oldu yinede size kalmış.


Bu Yoruma Cevap Ver
ELeNDILL | 16 Ağustos 2010 Pazartesi 12:45
bence de iyi olmuş


Bu Yoruma Cevap Ver
Ertugy | 22 Temmuz 2010 Perşembe 13:27
süper...


Bu Yoruma Cevap Ver
bymetalgod | 09 Temmuz 2010 Cuma 19:05
elinize saglık başından sonuna kadar harika, tek pürüz 3322...orda duruyo sanki


Bu Yoruma Cevap Ver
son@y | 07 Haziran 2010 Pazartesi 09:55
---9--12--11--9--12--9--11--9----------------- x2 -----------------------8--11----------8--9--------------------------------------------
-9----------------------------------10---12---9-- ---9--8--7---7---10---------7---10--------------12--10--9--12--10--10----------
---------------------------------------------------- -------------------------------------------------8--------------------------------------
---------------------------------------------------- ---- -----------------------------------------10---------------------------------9---10
----------------------------------------------------- ---- -------------------------------------------------------------------------------------
----------------------------------------------------- -----------------------------------------------------------------------------------------




Bu Yoruma Cevap Ver
ozcnlnya | 27 Mayıs 2010 Perşembe 21:19
04 Kasım 2009 Çarşamba tarihinde rock_angel* yazmıştı:
ya uydurma kardeşim bu tab bürsürü yerde war üstelik bundan çok daha eski sitelerde çalıntı bu
ne alaka herif uraşmış


Bu Yoruma Cevap Ver
batuhanx2y | 30 Nisan 2010 Cuma 17:55
çok güzel olmuş bravo


Bu Yoruma Cevap Ver
baran.365 | 17 Nisan 2010 Cumartesi 15:31
01 Şubat 2010 Pazartesi tarihinde WishToForgive yazmıştı:
çok güzel olmuş ama sanki 3-3-2-2 de bi eksiklik var
evet sonu eksik çıkartabilirsen yaz


Bu Yoruma Cevap Ver
umosos | 02 Nisan 2010 Cuma 17:03
13 Ağustos 2009 Perşembe tarihinde pufyy yazmıştı:
sondaki ----0-3-1--- olan yerin ---3-1-0-- olması gerekmiyomuydu? eline sağlık güzel olmuş =))
doğru diyosun ama pek batmıyo kulağa öteki türlü de tabi 3-1-0 daha bi güzel duruyo :D


Bu Yoruma Cevap Ver
umosos | 02 Nisan 2010 Cuma 17:02
18 Şubat 2010 Perşembe tarihinde siemir yazmıştı:
eline sağlık kardeşim...
güzel olmus tam aradıgım


Bu Yoruma Cevap Ver
rock_ogun | 18 Şubat 2010 Perşembe 21:38
18 Şubat 2010 Perşembe tarihinde siemir yazmıştı:
eline sağlık kardeşim...
güzel olmus tam aradıgım


Bu Yoruma Cevap Ver
rock_ogun | 18 Şubat 2010 Perşembe 21:38
eline sağlık kardeşim...


Bu Yoruma Cevap Ver
siemir | 18 Şubat 2010 Perşembe 16:20
spr olmuş eline sağlıkk<<</>>>


Bu Yoruma Cevap Ver
utku 292 | 03 Şubat 2010 Çarşamba 18:12
çok güzel olmuş ama sanki 3-3-2-2 de bi eksiklik var


Bu Yoruma Cevap Ver
WishToForgive | 01 Şubat 2010 Pazartesi 12:45
ya uydurma kardeşim bu tab bürsürü yerde war üstelik bundan çok daha eski sitelerde çalıntı bu


Bu Yoruma Cevap Ver
rock_angel* | 04 Kasım 2009 Çarşamba 12:43
yanlış felan yok gayette güzel olmuş, yalnız bana 2. satırın 2. kısmı biraz garip geldi :)


Bu Yoruma Cevap Ver
mojomusic | 29 Ekim 2009 Perşembe 14:27
18 Eylül 2008 Perşembe tarihinde assda yazmıştı:
eline sağlık harika olmuş<br/>
"/fck/editor/images/smiley/msn/thumbs_up.gif" alt=""/>
aynen:)


Bu Yoruma Cevap Ver
piraye. | 12 Eylül 2009 Cumartesi 16:53
helal olsun kardeş :)


Bu Yoruma Cevap Ver
genç19 | 03 Eylül 2009 Perşembe 11:00
sondaki ----0-3-1--- olan yerin ---3-1-0-- olması gerekmiyomuydu? eline sağlık güzel olmuş =))


Bu Yoruma Cevap Ver
pufyy | 13 Ağustos 2009 Perşembe 20:36
28 Mayıs 2009 Perşembe tarihinde sleepT_rocK yazmıştı:
3322 den sonra B teli 4 perde snrada E teli boş vurun ole bitio
DOĞRU SÖYLÜYO ORDA HATA VAR


Bu Yoruma Cevap Ver
shogun94 | 11 Ağustos 2009 Salı 18:42
Tam oturmuş beyler sorun yok ellerine sağık


Bu Yoruma Cevap Ver
bsuctu | 26 Temmuz 2009 Pazar 21:10
28 Kasım 2008 Cuma tarihinde Quuen yazmıştı:
04 Ekim 2008 Cumartesi tarihinde BrknS yazmıştı:
eksikler var
Nerde Eksiklik Var Kardeş Söle Bakim Bana Gelçi Yokta Genede Kontrol Edek Çıkarırız Merak etme
arkadasım sen bi de ince sesli olanına bak. hangisi doyum sağlıyo söle.


Bu Yoruma Cevap Ver
BrknS | 24 Temmuz 2009 Cuma 14:53
3322 den sonra B teli 4 perde snrada E teli boş vurun ole bitio


Bu Yoruma Cevap Ver
sleepT_rocK | 28 Mayıs 2009 Perşembe 20:08
eline sağlık çok hoş olmuş


Bu Yoruma Cevap Ver
LeoN_00 | 17 Mayıs 2009 Pazar 18:14
çok çokiyi olmuş kulağına eline sağlık





Bu Yoruma Cevap Ver
frukan | 17 Nisan 2009 Cuma 17:53
2. versiyon daha dogru


Bu Yoruma Cevap Ver
bed1rhan | 09 Nisan 2009 Perşembe 19:35
10 numara çok saol :)


Bu Yoruma Cevap Ver
cacaLa | 31 Mart 2009 Salı 19:01
24 Mart 2009 Salı tarihinde Metal-Can yazmıştı:
SÜPER tam uyuyo :) :)
süper oluyoooo =)


Bu Yoruma Cevap Ver
tugkun | 26 Mart 2009 Perşembe 18:18
SÜPER tam uyuyo :) :)


Bu Yoruma Cevap Ver
Metal-Can | 24 Mart 2009 Salı 19:19
hll eline kulağına sağlık xd


Bu Yoruma Cevap Ver
mrttrn | 06 Mart 2009 Cuma 16:50
tebrikler mükemmmel


Bu Yoruma Cevap Ver
mrttrn | 04 Mart 2009 Çarşamba 20:19
E---------0------0-3-1-----|---------------------------------|
B-------2--------------3---|-------------1-------------------|
G---0-3--------------------|-------2-3-2---3-3-2-2-----------|
D--------------------------|---0-3---------------------------|
A--------------------------|---------------------------------|
E--------------------------|---------------------------------|

3322 den sonra tam bitmiyo gibi geldi yanlış mıyım acaba? sanki yarım kalıyo gibi


Bu Yoruma Cevap Ver
MhmtEmin | 08 Şubat 2009 Pazar 23:33
emegine saglık güzel olmus


Bu Yoruma Cevap Ver
bahadiryilmaz12 | 19 Ocak 2009 Pazartesi 16:09
yanlış


Bu Yoruma Cevap Ver
melenq!. | 17 Ocak 2009 Cumartesi 21:34
"/fck/editor/images/smiley/msn/wink_smile.gif" alt=""/><br/>
s&uuml;per eline sağlık!!


Bu Yoruma Cevap Ver
likofor | 02 Ocak 2009 Cuma 16:19
04 Ekim 2008 Cumartesi tarihinde BrknS yazmıştı:
eksikler var
Nerde Eksiklik Var Kardeş Söle Bakim Bana Gelçi Yokta Genede Kontrol Edek Çıkarırız Merak etme


Bu Yoruma Cevap Ver
Quuen | 28 Kasım 2008 Cuma 20:04
tam olmuş


Bu Yoruma Cevap Ver
ANGEL1753 | 01 Kasım 2008 Cumartesi 12:22
eline saglıkk :))


Bu Yoruma Cevap Ver
basscolic | 01 Kasım 2008 Cumartesi 00:54
mükemmel


Bu Yoruma Cevap Ver
las ve gas | 28 Ekim 2008 Salı 17:45
eline saglık ck guzel olmus gercekten


Bu Yoruma Cevap Ver
dabada | 26 Ekim 2008 Pazar 19:29
güzell olmus brovo :D


Bu Yoruma Cevap Ver
gangsta50 | 25 Ekim 2008 Cumartesi 20:39
süper . tşk saol .


Bu Yoruma Cevap Ver
MartiN232008 | 18 Ekim 2008 Cumartesi 23:13
eksikler var


Bu Yoruma Cevap Ver
BrknS | 04 Ekim 2008 Cumartesi 20:22
M&Uuml;Kemmel Olmus eline saglık cok g&uuml;zel


Bu Yoruma Cevap Ver
Quuen | 29 Eylül 2008 Pazartesi 14:18
mukemmel ya mukemmel su buzamana kadar gordugum en ıyı tablaran bırısı


Bu Yoruma Cevap Ver
class_jojuk | 25 Eylül 2008 Perşembe 21:28
<p>İşTe Bu :D"/fck/editor/images/smiley/msn/regular_smile.gif" alt=""/></p>


Bu Yoruma Cevap Ver
loveboy | 20 Eylül 2008 Cumartesi 19:40
m&uuml;kmmel


Bu Yoruma Cevap Ver
*Miss-Rocker* | 19 Eylül 2008 Cuma 21:56
harika dostum


Bu Yoruma Cevap Ver
imsol | 19 Eylül 2008 Cuma 17:05
<p>super<br/>
</p>


Bu Yoruma Cevap Ver
FrknBLT | 18 Eylül 2008 Perşembe 23:25
<p>cok guzel elıne sağlk</p>


Bu Yoruma Cevap Ver
crazy__ | 18 Eylül 2008 Perşembe 22:39
muhteşem olmuş ellerine sağlık :)


Bu Yoruma Cevap Ver
blackkkkk | 18 Eylül 2008 Perşembe 20:39
ya hep kafam karışıo nasıl okunuyo şimdi bu


Bu Yoruma Cevap Ver
bambam87 | 18 Eylül 2008 Perşembe 20:28
<p>&ccedil;ok g&uuml;zel olmus ellerine saglıkk....ama &ccedil;alısmak lasım:D biras kasık:D ama ger&ccedil;ekten harika..emeğine saglık'!!</p>


Bu Yoruma Cevap Ver
chernobil_tgcn | 18 Eylül 2008 Perşembe 17:04
harika olmş &ccedil;ok doğru tablar :)<br/>


Bu Yoruma Cevap Ver
ryk3n | 18 Eylül 2008 Perşembe 15:36
eline sağlık harika olmuş<br/>
"/fck/editor/images/smiley/msn/thumbs_up.gif" alt=""/>


Bu Yoruma Cevap Ver
assda | 18 Eylül 2008 Perşembe 15:01


Siz de Görüş Bildirin

Yorum yazma alanı Akor Merkezi üyelerine özel bir bölümdür. (Giriş Yap / Üye Ol / Şifremi Hatırlat)


PAYLAŞ

Reklam



Anket
sarışın kuş soruyor:
Hangisi Daha Eski










Sonuçlar | Sonuçlar & Yorumlar
Yeni Anket | Anketler




Reklam


Radyo Dinle
AkorMerkezi.com © 2014
İletişim - Gizlilik Politikası - Kullanım Koşulları - Kurallar - Son Yorumlar - Rastgele

GitarAkor.com kolonisidir. Derleme 0,09 saniye.