Akor Tab Söz Çeviri Anasayfası
Akor|Tab|Söz|Nota Arşivi
Gitar Akorları | Tab,Söz ve Nota Anasayfası | En Yeni Şarkılar | En Popüler Şarkılar | Akor Cetveli

Bilgiler
 
Seslendiren ve Şarkı: Film Müzikleri - Hababam Sınıfı
Biçim: TAB - INTRO
Tarih: 28 Haziran 2009 Pazar
Gönderen: PUNK ROCKK
Toplam Okuyan: 105.742 kişi
Bu Ay Okuyan: 1.857 kişi
Bu Hafta Okuyan: 120 kişi
 
Beğendiniz mi? Hababam Sınıfı Tab sayfasını Şimdi paylaşın:

Film Müzikleri - Hababam Sınıfı - Tab


Puanlama:
 (45 kişi)

Hababam Sınıfı şarkısının diğer versiyonlarına bakın >>

Metin boyutu: ( + Büyült ) ( - Küçült)   
E|12-10-12------------------------------------------------------------------
B|----------12-10-12---9-----9--9-------------------------------------------
G|----------------------- 10-------10-9--|-10-10-9--------10-9--9^^^9-------
D|-------------------------------------------------12-12--------------------
A|--------------------------------------------------------------------------
E|--------------------------------------------------------------------------


E|12-10-12---------------------------------------------------12-12----------
B|----------12-10-12----9-----9--9---------------9----12--------------------
G|------------------------10-------10-9--|-9--------------------------------
D|--------------------------------------------------------------------------
A|--------------------------------------------------------------------------
E|--------------------------------------------------------------------------


E|12----7------8-10-8-7-----------------------------------------------------
B|-----------------------10-----9-9------9-9-10---12-|--------9-10-12-------
G|-----------------------------------10-----------------9-10----------------
D|--------------------------------------------------------------------------
A|--------------------------------------------------------------------------
E|--------------------------------------------------------------------------


E|12----7-----8-10-8-7------------------------------------------------------
B|----------------------10--|--9-9---------------------12-10-9--------------
G|-----------------------------------10-10-------9----------------10-9------
D|------------------------------------------12------------------------------
A|--------------------------------------------------------------------------
E|--------------------------------------------------------------------------


E|--------------------------------------------------------------------------
B|-------------------------9-10-9-10-12-|----------------------9-10-9-10-12-
G|10-10-9----------10-9-|---------------|-10-10-9---------10-9|-------------
D|---------12-12----------------------------------12-12---------------------
A|--------------------------------------------------------------------------
E|--------------------------------------------------------------------------


E|--------------------------------------------------------------------------
B|10-10-9---------10-9-|-9-10-9-10-12-|-12-12-10---9-9-12----10^^^^^10--|---
G|---------10-10------------------------------------------------------------
D|--------------------------------------------------------------------------
A|--------------------------------------------------------------------------
E|--------------------------------------------------------------------------


E|--------8--11--12---7-8-7-------------------------------------------------
B|10-12-----------------------10-9------------------------------------------
G|-----------------------------------10-9---9^^^^^9-------------------------
D|--------------------------------------------------------------------------
A|--------------------------------------------------------------------------
E|--------------------------------------------------------------------------


E|----------------------7-8-7-----------------------------------------------
B|-----------------------------10-----9-------------------------------------
G|10-10-9---------10------------------------10----9^^^^^^9------------------
D|---------12-12------------------------------------------------------------
A|--------------------------------------------------------------------------
E|--------------------------------------------------------------------------


Hababam Sınıfı Tab, AkorMerkezi.com'da yayınlanmıştır.
http://www.akormerkezi.com


İçerik Kısa Linki:


Beğendiniz mi? Hababam Sınıfı Tab sayfasını Şimdi paylaşın:


Hababam Sınıfı Tab için Komoçotoko'dan Gelenler
Aramalar: film müzikleri elektro tab, hababam sınıfı ana müziği şarkı sözü, hababam sınıfı gitar notası, hababam sinifi muzigi akor tab, hababa, sinifi tab, hababam sınifi sarkisi gitar tab, hababamsinifiakor, hababam sınıfı müziklerini kim söylüyor, abamsnıfıkaı, hababam sınıfı askerde tab
Film Müzikleri - Hababam Sınıfı için Kullanıcı Görüşleri

aynısı songsterr sitesinde var kendinmi cıkardın bu tabı ? :)


Bu Yoruma Cevap Ver
KoRSanNnLoRD | 27 Eylül 2013 Cuma 08:55
yavaş çalınca veda şarkısına benizoyr


Bu Yoruma Cevap Ver
Krik Hammett | 24 Eylül 2013 Salı 19:34
Berbat diyen arkadaşlara sesleniyorum 2 günlük gitar çalmanız ile şarkılara yorum yapmayın müziği önce bi dinleyin sonra burda ritmine göre çalın sonra ona göre yorum yapın he ayrıca çok biliyosanız bide kendiniz tab çıkarında dinleyelim. Ellerine sağlık kardeşim.


Bu Yoruma Cevap Ver
Hyunax | 30 Mart 2013 Cumartesi 11:21
Valla kötü olmuş.Benzetemedim


Bu Yoruma Cevap Ver
cahar18 | 09 Şubat 2013 Cumartesi 22:51
10 Temmuz 2009 Cuma tarihinde kobepasa yazmıştı:
berbat
sen çalamıyosan adama suç atma kulağın yoksa sorunu başkalarında arama


Bu Yoruma Cevap Ver
Extanrel | 06 Ocak 2013 Pazar 10:09
süüüüpeeeeer :o eline kulağına sağlık


Bu Yoruma Cevap Ver
blackyoung | 16 Aralık 2012 Pazar 21:32
güzel olmuş eline sağlık..


Bu Yoruma Cevap Ver
samoleto | 13 Ağustos 2012 Pazartesi 23:50
06 Kasım 2011 Pazar tarihinde I lovethemusic yazmıştı:
HABABAM SINIFI TAB. ; )

E..........0...................................................................... ..........
B...............0.....1......3......1.....0..............................................
G......................................................2.....1.....2....1.....2.....4...


E..........0...................................................................... ..........
B...............0.....1......3......1.....0..............................................
G......................................................2.....1.............................
D....................................................................2.....3.....1.....2..
kardes güzel çıkıo sesama kolay basım bu 12. perde olsa daha ii olur diorm ama buda güzel bi tab...


Bu Yoruma Cevap Ver
GitaristWD | 27 Aralık 2011 Salı 19:39
HABABAM SINIFI TAB. ; )

E..........0...................................................................... ..........
B...............0.....1......3......1.....0..............................................
G......................................................2.....1.....2....1.....2.....4...


E..........0...................................................................... ..........
B...............0.....1......3......1.....0..............................................
G......................................................2.....1.............................
D....................................................................2.....3.....1.....2..


Bu Yoruma Cevap Ver
I lovethemusic | 06 Kasım 2011 Pazar 17:28
Ritmi ve hızı tutturunca eski günlere dönüyor insan.. eyvallah birader saolasın güzel..


Bu Yoruma Cevap Ver
Byhaqan | 02 Ekim 2011 Pazar 16:49
harika


Bu Yoruma Cevap Ver
UMS | 01 Temmuz 2011 Cuma 21:52
27 Nisan 2010 Salı tarihinde sert_çocuk yazmıştı:
.ok gibi olmu diyenler pencereden atlasın
En güzeli bu olmuş ayrıca yukarıdaki tabı beğenmedim.


Bu Yoruma Cevap Ver
berkil | 19 Şubat 2011 Cumartesi 10:59
klasik gitarla gayet guzel oluyo


Bu Yoruma Cevap Ver
mucoman | 10 Şubat 2011 Perşembe 12:52
çok kötu


Bu Yoruma Cevap Ver
guitardevrim | 25 Aralık 2010 Cumartesi 22:39
berbat hiç uymamış gibi saçma sapan yorum yapanlara sesleniyorum siz ne biliosunz ki melodi tamamıyla doğru ama sorun şurdaki siz melediyi bilmeyi yorum yapıosunuz o notaları ruhsuz ruhsuz çalıcağınıza biraz kulağınızı geliştirip çalmayı deneyin kardeşim eline sağlık baştan sona doğrudur kötü eleştiri yapanların yorumları bakılınca müzik seviyeleri belli oluyor ztn..!


Bu Yoruma Cevap Ver
tugay16 | 03 Kasım 2010 Çarşamba 22:47
güzel olmuş..=) emeğine sağlık ..


Bu Yoruma Cevap Ver
the_mstf | 21 Temmuz 2010 Çarşamba 18:27
.ok gibi olmu diyenler pencereden atlasın


Bu Yoruma Cevap Ver
sert_çocuk | 27 Nisan 2010 Salı 20:58
-----------12-------8----10---8-----------------------------------------------------------------------
---------------12----------------------12---10---9--9---------9-9---10---12-----9-10--9-10-12-----
-----------------------------------------------------------10------------------------------------------------
giriş bölümüde... bu daha iyi diye düşünüyorum.. benim kulağıma göre..


Bu Yoruma Cevap Ver
tokyolu | 26 Nisan 2010 Pazartesi 01:43
gayet güzel.. yanlız daha az perdeye sığıyor..
E de 7 lerin yerine
-b 12 den devam etsen daha iyi olabilir...
-
-
-
e


Bu Yoruma Cevap Ver
tokyolu | 26 Nisan 2010 Pazartesi 01:33
beğenirsen çal beğenmezsen çalma ama senin olmayanıda benim diye koyma çalamaya berbat çalana orjinale yakın tablar ama nota gibi olmuyor tabii...
gitar pro notayı taba bu kadar çevirebiliyor.
6-7 yıl öncede vardı aynı tablar.
paylaşımın için teşekkürler.

çok b..tan olmuş diyen genç sen bu işle uğraşma istersen daha farklı ensturmanlar var .. :S :))


Bu Yoruma Cevap Ver
integralll | 17 Mart 2010 Çarşamba 00:40
olmamış diyenler müzigi biraksin bence yada kulak dersi alsınlar:D


Bu Yoruma Cevap Ver
samedd | 04 Şubat 2010 Perşembe 22:19
Guitar Prodan almış buraya koymuşsun baya uğrasmıssın tesekkürler...


Bu Yoruma Cevap Ver
samedd | 04 Şubat 2010 Perşembe 22:18
arkadaş cok boktan olmuş kusura bakmma


Bu Yoruma Cevap Ver
rock_angel* | 25 Ekim 2009 Pazar 15:55
önemli dğil arkadaşlar elimden bu kadarı geldi


Bu Yoruma Cevap Ver
PUNK ROCKK | 18 Eylül 2009 Cuma 09:09
fena değil bence orjinale en yakın ton bu olmuş emeğine sağlık


Bu Yoruma Cevap Ver
kobe_bryant | 30 Ağustos 2009 Pazar 14:28
klasikle berbat ötesi ama emeğe saygı


Bu Yoruma Cevap Ver
weROCK | 28 Ağustos 2009 Cuma 15:16
klasik gitarda iğrenç olmuş 12. perdeye hızlı hızlı çalarken yetişmek imkansiz
(zaten ses berbat çıkıo)


Bu Yoruma Cevap Ver
shogun94 | 22 Ağustos 2009 Cumartesi 17:35
olmamış yaniiii


Bu Yoruma Cevap Ver
YEGTURK | 12 Ağustos 2009 Çarşamba 18:07
bikaç küçük hata dışında gayet güzel emeğine sağlık . .


Bu Yoruma Cevap Ver
fuu | 08 Ağustos 2009 Cumartesi 22:40
bikaç küçük hata dışında ayet güzel emeğine sağlık . .


Bu Yoruma Cevap Ver
fuu | 08 Ağustos 2009 Cumartesi 22:39
daha iyisni yapın sizinkine bakalım :S


Bu Yoruma Cevap Ver
basscolic | 17 Temmuz 2009 Cuma 04:09
hiçte dil


Bu Yoruma Cevap Ver
PUNK ROCKK | 16 Temmuz 2009 Perşembe 14:36
çok güzel çıkıyo


Bu Yoruma Cevap Ver
PUNK ROCKK | 16 Temmuz 2009 Perşembe 14:34
hiç uymamış neyse emeğine sağlık


Bu Yoruma Cevap Ver
alex1868 | 15 Temmuz 2009 Çarşamba 00:26
berbat


Bu Yoruma Cevap Ver
kobepasa | 10 Temmuz 2009 Cuma 12:35


Siz de Görüş Bildirin

Yorum yazma alanı Akor Merkezi üyelerine özel bir bölümdür. (Giriş Yap / Üye Ol / Şifremi Hatırlat)


PAYLAŞ

Reklam



Anket
soLoRoCker soruyor:
Metallicanın kahramanı sizce hangisi?







Sonuçlar | Sonuçlar & Yorumlar
Yeni Anket | Anketler




Reklam


Radyo Dinle
AkorMerkezi.com © 2014
İletişim - Gizlilik Politikası - Kullanım Koşulları - Kurallar - Son Yorumlar - Rastgele

GitarAkor.com kolonisidir. Derleme 0,06 saniye.