Akor Tab Söz Çeviri Anasayfası
Akor|Tab|Söz|Nota Arşivi
Gitar Akorları | Tab,Söz ve Nota Anasayfası | En Yeni Şarkılar | En Popüler Şarkılar | Akor Cetveli

Bilgiler
 
Seslendiren ve Şarkı: Film Müzikleri - Karayip Korsanları
Biçim: TAB - HİÇBİRİ
Tarih: 20 Kasım 2010 Cumartesi
Gönderen: asdsad2
Toplam Okuyan: 169.680 kişi
Bu Ay Okuyan: 2.638 kişi
Bu Hafta Okuyan: 291 kişi
 
Beğendiniz mi? Karayip Korsanları Tab sayfasını Şimdi paylaşın:

Film Müzikleri - Karayip Korsanları - Tab


Puanlama:
 (141 kişi)

Karayip Korsanları şarkısının diğer versiyonlarına bakın >>

Metin boyutu: ( + Büyült ) ( - Küçült)   
e--------------------------------------------------|
B--------------------------------------------------|
G--------------------------------------------------|
D--------------------------------------------------|
A-5---5-5--5-5--5-5-5---5---5-5--5-5--5-5-5--------|
E--------------------------------------------------|

e--------------------------------------------------|
B--------------------------------------------------|
G---------------------------------------------7----|
D--------------------------------------------------|
A-5---5-5--5-5--5-5-5---5---5-5--5-5--5-5-5---5----|
E--------------------------------------------------|
        (You can try palm muting if u like)

Tabs including rhythm Chords:
e--------------------------------------------------|
B-------------5-6-6---6-8-5-5----------------------|
G---5-7-7---7-------------------7-5-5h7------------|
D-7------------------------------------------------|
A--------------------------------------------------|
E--------------------------------------------------|
     Dm        Bb        C        Dm

e--------------------------------------------------|
B-------------5-6-6---6-8-5-5----------------------|
G---5-7-7---7-------------------7-5-7~~------------|
D-7------------------------------------------------|
A--------------------------------------------------|
E--------------------------------------------------|
     Bb        F         C        Dm

e-----------------------5-6-6---5---5--------------|
B-------------6-8-8---8-----------8----------------|
G---5-7-7---7-------------------------7------------|
D-7------------------------------------------------|
A--------------------------------------------------|
E--------------------------------------------------|
     Dm        Gm        Am       Dm

e----------5-6-------------------------------------|
B---6-8-8------------6-5-5-------------------------|
G-7------------7---7---------7-5-5h7---------------|
D--------------------------------------------------|
A--------------------------------------------------|
E--------------------------------------------------|
     Bb       Dm         A7       A7

e--------------------------------------------------|
B-------------5-6-6---6-8-5-5----------------------|
G---5-7-7---7-------------------7-5-5h7------------|
D-7------------------------------------------------|
A--------------------------------------------------|
E--------------------------------------------------|
     Dm        Bb        C        Dm

e--------------------------------------------------|
B-------------5-6-6---6-8-5-5----------------------|
G---5-7-7---7-------------------7-5-7~~------------|
D-7------------------------------------------------|
A--------------------------------------------------|
E--------------------------------------------------|
     Bb        F         C        Dm

e-----------------------5-6-6---5---5--------------|
B-------------6-8-8---8-----------8----------------|
G---5-7-7---7-------------------------7------------|
D-7------------------------------------------------|
A--------------------------------------------------|
E--------------------------------------------------|
     Dm        Gm        Am       Dm

e----------5-6-------------------------------------|
B---6-8-8------------6-5-5-------------------------|
G-7------------7---7---------7-5-7-----------------|
D--------------------------------------------------|
A--------------------------------------------------|
E--------------------------------------------------|
     Bb       Dm         A7       Dm

e-------------------1------------------------------|
B---4/5-6-6-8--10\----3----------------------------|
G-7-----7-7-7---7\------2--------------------------|
D--------------------------------------------------|
A--------------------------------------------------|
E--------------------------------------------------|
     C   Bb    A     A

e-6------------------------------------------------|
B-6-6----------------------------------------------|
G-----7-----7-7-7-10-------------------------------|
D-------8---7-7-7--7-------------------------------|
A--------------------------------------------------|
E--------------------------------------------------|
    Gm      Am

e--------------------------------------------------|
B-10-10-10-11-10---8-8-8-8-10----------------------|
G-10-10-10---------9-9-9---------------------------|
D--------------------------------------------------|
A--------------------------------------------------|
E--------------------------------------------------|
     Dm     Dm     C    Dm

e--------------------------------------------------|
B-10-10-10-11-10---6/8-6-5-------------------------|
G-10-10-10---------7/9-7---7-----------------------|
D--------------------------------------------------|
A--------------------------------------------------|
E--------------------------------------------------|
     Dm     Dm     C    Dm

Plucking kicks in here.
I will use 2 bars here 1 for tab and 2nd for pluck
e--------------------------------------------------|
B--------8-10-8---------8-10-8---------------------|
G-7-9-10--------10-9-10----------------------------|
D--------------------------------------------------|
A--------------------------------------------------|
E--------------------------------------------------|
Pluck:
e--------------------------------------------------|
B-----3-----3-----1--------------------------------|
G---2-----2-----0-------2--------------------------|
D-0-----0-------------3----------------------------|
A-------------3------------------------------------|
E-------------------3------------------------------|

e--------------------------------------------------|
B----8-10-8----------------------------------------|
G-10--------10-9-10-9-7-9-5-7----------------------|
D--------------------------------------------------|
A--------------------------------------------------|
E--------------------------------------------------|
Pluck:
e--------------------------------------------------|
B-----------------3-----3--------------------------|
G-----0-----2---2-----2----------------------------|
D---2-----0---0-----0------------------------------|
A-3-----0------------------------------------------|
E--------------------------------------------------|

e--------------------------------------------------|
B-------------8----8-10-8--------------------------|
G-7-9-10-9-10---10--------10-7---------------------|
D--------------------------------------------------|
A--------------------------------------------------|
E--------------------------------------------------|
Pluck:
e--------------------------------------------------|
B-----3-----3-----1--------------------------------|
G---2-----2-----0-------2--------------------------|
D-0-----0-------------3----------------------------|
A-------------3------------------------------------|
E-------------------3------------------------------|

e--------------------------------------------------|
B--------8^-10-8--------8--------------------------|
G-7-9-10---------7-9-10---9-7-9-5------------------|
D--------------------------------------------------|
A--------------------------------------------------|
E--------------------------------------------------|
Pluck:
e--------------------------------------------------|
B--------------------------------------------------|
G-----3-----3-----5-----5--------------------------|
D---------5-----7-----7----------------------------|
A---5----------------------------------------------|
E-3-----3-----5-----5------------------------------|

Back to chords again from this point.
e--------------------------------------------------|
B-10-11--------------------------------------------|
G--7-10-14-14-14-14\12---12-10-9-10-9-7------------|
D-------15-15-15-15------12-10-7--7-7-7------------|
A--------------------------------------------------|
E--------------------------------------------------|
  Dm Bb C        F       Gm Am Am     Dm

e--------------------------------------------------|
B-10-11--------------------------------------------|
G--7-10-14-14-14-14\12---12-10-9-10-9-7------------|
D-------15-15-15-15------12-10-7--7-7-7------------|
A--------------------------------------------------|
E--------------------------------------------------|
  Dm Bb C        F       Gm Am Am     Dm

e-------------------------------------------------------|
B-------10-------11--------10-10-10-10\8----8-6-5-6-5---|
G-----10-------10-------10-10-10-10-10\8----9-7-7-----7-|
D---12-------12-------12--------------------------------|
A-12-------12-------12----------------------------------|
E-------------------------------------------------------|
        Dm       Bb        C        F       Gm Am Am  Dm

e-------------------------------------------------------|
B-------10-------11--------10-10-10-10\8----8-6-5-6-5---|
G-----10-------10-------10-10-10-10-10\8----9-7-7-----7-|
D---12-------12-------12--------------------------------|
A-12-------12-------12----------------------------------|
E-------------------------------------------------------|
        Dm       Bb        C        F       Gm Am Am  Dm

Karayip Korsanları Tab, AkorMerkezi.com'da yayınlanmıştır.
http://www.akormerkezi.com


İçerik Kısa Linki:


Beğendiniz mi? Karayip Korsanları Tab sayfasını Şimdi paylaşın:


Karayip Korsanları Tab için Komoçotoko'dan Gelenler
Aramalar: karayip korsanları dizi müzikleri, film müzikleri akormerkezi, karayip korsanları tav, Gitar da karayip korsanlarının notaları, youtube pirates of the caribbean gitar akorları, en kolay gitar tabları karayip korsanları, karayip korsanları bass gitar tab, karayip korsanları film müzikleri soundtrack, karayip korsanları nın muziginin akoru, karayip korsalanları tab
Film Müzikleri - Karayip Korsanları için Kullanıcı Görüşleri

21 Nisan 2013 Pazar tarihinde EmrcnKnklc yazmıştı:
Kaydırma
saçmala "h" hammer on anlamına gelir yani çekiçleme, 5 e vurduktan sonra penayı kullanmadan sertçe 7 ye basıcaksın


Bu Yoruma Cevap Ver
SizophreN | 02 Şubat 2014 Pazar 01:48
/ slide yani kaydırma demek :d


Bu Yoruma Cevap Ver
H4Z4R | 06 Ağustos 2013 Salı 22:28
Arkadaşlar parça konusunda yardımcı olabilecek bi arkdaş mesaj atabilirmi


Bu Yoruma Cevap Ver
eren0633 | 21 Haziran 2013 Cuma 20:00
5h7 bu tab nasıl çalınıyor arkadaşlar bilen var mı?


Bu Yoruma Cevap Ver
Orbay* | 05 Mayıs 2013 Pazar 14:54
Kaydırma


Bu Yoruma Cevap Ver
EmrcnKnklc | 21 Nisan 2013 Pazar 21:43
hem sağa yatık hem sola yatık işaret "/", "\" nedir çıkartamadım


Bu Yoruma Cevap Ver
ha-k-n | 08 Nisan 2013 Pazartesi 00:14
tab'taki "/" nün anlamı nedir bilen var mı?


Bu Yoruma Cevap Ver
ha-k-n | 08 Nisan 2013 Pazartesi 00:14

e-------------------1------------------------------|
B---4/5-6-6-8--10\----3----------------------------|
G-7-----7-7-7---7\------2--------------------------|
D--------------------------------------------------|
A--------------------------------------------------|
E--------------------------------------------------|
C Bb A A

e-6------------------------------------------------|
B-6-6----------------------------------------------|
G-----7-----7-7-7-10-------------------------------|
D-------8---7-7-7--7-------------------------------|
A--------------------------------------------------|
E--------------------------------------
bu bölüm hatalı gibi


Bu Yoruma Cevap Ver
ipo.tek | 14 Ekim 2012 Pazar 11:11
http://www.akormerkezi.com/carly-rae-jepsen-call-me-maybe-tab_sarki-lrnpnn.html


Bu Yoruma Cevap Ver
nincatosbaga | 14 Eylül 2012 Cuma 19:07
22 Haziran 2012 Cuma tarihinde Raminn yazmıştı:
Yani TAb i nasil Akor un icinde Caliyolar anlamadim bi anlata bilirmisiniz...
E -- Mİ teli 1. tel
B-- si teli 2.tel
G-- sol teli 3.tel
D--- re teli 4. tel
A-- la teli 5. tel
E-- mi teli 6.tel





3. tel den başlıyor o rakamalar perde sıra numarası dır aşağıda verdiğim tab ise şöyle ... Re. telin 7. perdesine basıcan sonra sol telin 5. perdesine basıcan böyle gider :) anladın

E---------------------------------------------------/
B-------------5-6-6---6-8-5-5----------------------|
G---5-7-7---7-------------------7-5-5h7------------|
D-7------------------------------------------------|
A--------------------------------------------------|
E--------------------------------------------------|


Bu Yoruma Cevap Ver
asdsad2 | 26 Temmuz 2012 Perşembe 21:12
Yani TAb i nasil Akor un icinde Caliyolar anlamadim bi anlata bilirmisiniz...


Bu Yoruma Cevap Ver
Raminn | 22 Haziran 2012 Cuma 08:07
Yani TAb i nasil Akor un icinde Caliyolar anlamadim bi anlata bilirmisiniz...


Bu Yoruma Cevap Ver
Raminn | 22 Haziran 2012 Cuma 08:07
hocam ben niye çalamıyorum o ses benim gitardan neden çıkmıyor...


Bu Yoruma Cevap Ver
aynasız | 28 Nisan 2012 Cumartesi 11:21
Pirates of the Caribbean Theme V2

V2 (05/03/2009)
+ Added Chords
+ Cleared Tabs

This tab was not made by me, i've found it on youtube:
http://www.youtube.com/watch?v=TQgE-TFXX50

Chords (from the Hemo version)

Dm Bb Am Dm
Bb F C Dm
Dm Gm Am Dm
Bb Dm A A7

Dm Bb Am Dm
Bb F C Dm
Dm Gm Am Dm
Bb Dm A
Dm C Bb A
Gm A

Dm C Dm
Dm C D

Dm C F Bb
F Am Dm Dm
Dm C F Bb
Gm Am A

Dm Bb F C
Gm Am Am Dm



//////////////////////////////////////////////////////////////////////
//////////////////////////////INTRO///////////////////////////////////
//////////////////////////////////////////////////////////////////////

(Palm mute 5th Cord)

E---------------------------------------------------------|
B---------------------------------------------------------|
G------------------------------------------------7--------|
D--------------------------------------------------7--10--|
A-5--5-5--5---5-5-5-5-5---5--5-5-5---5-5-5-5-----5--------|
E---------------------------------------------------------|

//////////////////////////////////////////////////////////////////////
//////////////////////////////PART 1//////////////////////////////////
//////////////////////////////////////////////////////////////////////

Dm Bb Am Dm
E----------------------------------------------|
B---------------------8------------------------|
G-7-7--7-9--10-10-10-----9-9-7---------7-------|
D------------------------------10-10------7-10-|
A----------------------------------------------|
E----------------------------------------------|

Bb F C Dm
E----------------------------------------------|
B---------------------8------------------------|
G-7-7--7-9--10-10-10-----9-9-7------7----------|
D-------------------------------10------7--10--|
A----------------------------------------------|
E----------------------------------------------|

Dm Gm Am
E-------------------------------------|
B-------------8-8-8-10-11-11-10-8-10--|
G-7-7-7-10----------------------------|
D-------------------------------------|
A-------------------------------------|
E-------------------------------------|

Dm Bb Dm A
E---------------------------------------------|
B-----------------8--10-----------------------|
G-7-7-9-10-10-----------7-7-10--9-9-10-7--9---|
D---------------------------------------------|
A---------------------------------------------|
E---------------------------------------------|

A7 Dm Bb Am
E-----------------------------------------------|
B----------------------8------------------------|
G-7-7--7-9--10-10-10-----9-9-7---------7--------|
D-------------------------------10-10-----7-10--|
A-----------------------------------------------|
E-----------------------------------------------|

Dm Bb F C
E-----------------------------------------------|
B---------------------8-------------------------|
G-7-7--7-9--10-10-10-----9-9-7------7-----------|
D-------------------------------10------7--10---|
A-----------------------------------------------|
E-----------------------------------------------|

Dm Dm Gm Am
E--------------------------------------|
B-------------8-8-8-10--11-11-10-8-10--|
G-7-7-7-10-----------------------------|
D--------------------------------------|
A--------------------------------------|
E--------------------------------------|

Dm Bb Dm A Dm C
E-------------------------------------------------------------------|
B----------------8--10----------------------------------8--10----6--|
G-7-7--9--10-10--------7-7-10--9-9-7-6-7--7-9--10-10-10-------10---7|
D-------------------------------------------------------------------|
A-------------------------------------------------------------------|
E-------------------------------------------------------------------|

Bb A Gm A
E------------------------------------------|
B-------11--8----------5------------6--6-8-|
G-------------7--------6-7--------6--------|
D----7--------------8------5---------------|
A------------------------------------------|
E------------------------------------------|

Dm C Dm
E-----------------------------|
B-10-10-10--11--10-8-8-8--8-10|
G-10-10-10--10--10-9-9-9--9-9-|
D-----------------------------|
A-----------------------------|
E-----------------------------|

Dm C D
E-----------------------------|
B-10-10-10-11--10-6/8/6--5----|
G-10-10-10-10--10-5/7/5--5----|
D-----------------------------|
A-----------------------------|
E-----------------------------|

//////////////////////////////////////////////////////////////////////
//////////////////////////PART 2(CALM PART)///////////////////////////
//////////////////////////////////////////////////////////////////////


Dm C F Bb F Am Dm Dm
E------------------------------------------------------------------|
B-------------8-10-8----------8-10-8------8-10-8-------------------|
G--7---7-9-10--------10-9-10----------10---------10-9-10-9-7-9-5-7-|
D--7---------------------------------------------------------------|
A------------------------------------------------------------------|
E------------------------------------------------------------------|

Dm C F Bb
E------------------------------------------------|
B------------8-10-8------8-10-8------------------|
G----7-9-10------ ---10---------10-7-------------|
D------------------------------------------------|
A------------------------------------------------|
E------------------------------------------------|

Gm Am A
E------------------------------------------------|
B--------------8-10-11----8-----8----------------|
G------7-9-10-----------7---10----9--7--9--6-----|
D------------------------------------------------|
A------------------------------------------------|
E------------------------------------------------|

//////////////////////////////////////////////////////////////////////
//////////////////////////////CHORUS//////////////////////////////////
//////////////////////////////////////////////////////////////////////

Dm Bb F C
E------------------------------------------|
B--10-11-10-10-10-10-8-8-6-5-6-5-----------|
G--10-10-10-10-10-10-9-9-5-5-5-5-7---------|
D--------------------------------7---------|
A------------------------------------------|
E------------------------------------------|

Gm Am Am Dm
E------------------------------------------|
B--10-11-10-10-10-10-8-8-6-5-6-5-----------|
G--10-10-10-10-10-10-9-9-5-5-5-5-7---------|
D--------------------------------7---------|
A------------------------------------------|
E------------------------------------------|

Dm Bb F C
E--------------------------------------------------|
B---------10----------11---------------10--10--13--|
G----9-10--------9-10-----------9-10-10--10--10----|
D-12----------12-------------12--------------------|
A--------------------------------------------------|
E--------------------------------------------------|

Gm Am Am Dm
E------------------------------|
B-10-8-8--6--5-6-5-------------|
G-10-9-9--5--5-5-5-7-----------|
D------------------7-----------|
A------------------------------|
E------------------------------|

Dm Bb F C
E--------------------------------------------------|
B---------10----------11---------------10--10--13--|
G----9-10--------9-10-----------9-10-10--10--10----|
D-12----------12-------------12--------------------|
A--------------------------------------------------|
E--------------------------------------------------|

Gm Am Am Dm
E------------------------------||
B-10-8-8--6--5-6-5-------------||
G-10-9-9--5--5-5-5-7-----------||
D------------------7-----------||
A------------------------------||
E------------------------------||

doğrusu bu kolay gelsin


Bu Yoruma Cevap Ver
s213123 | 14 Nisan 2012 Cumartesi 23:24
sorunuz varsa bana sorun ben baştan aşağıya çalıyom


Bu Yoruma Cevap Ver
38gitarist38 | 10 Nisan 2012 Salı 19:24
e-------------------1------------------------------|
B---4/5-6-6-8--10\----3----------------------------|
G-7-----7-7-7---7\------2--------------------------|
D--------------------------------------------------|
A--------------------------------------------------|
E--------------------------------------------------|
Sanki burda bir yanlışlık var
http://www.youtube.com/watch?v=_Z_lAjt-gMw&feature=related bu videoda aynı ilerliyor ama bu ritime gelince farklı bir akor basıyor


Bu Yoruma Cevap Ver
garez35 | 02 Nisan 2012 Pazartesi 01:13
10 Şubat 2012 Cuma tarihinde wakfi yazmıştı:
10 Şubat 2012 Cuma tarihinde wakfi yazmıştı:
ALLAH RIZASI İÇİN BİRİ ŞUNUN AKORLARINI SÖYLERMİİİİİİİİİİİİİİİİİİİİİİİİİİİİİİİİİİİİ
PARDON ALLAH RIZASI İÇİN BİRİ BUNUN RİTMİNİ SÖYLERMİİİİİİİİİİİİİİİİİİİİİİİİİİİİ
ritmini kendin uydur


Bu Yoruma Cevap Ver
akorsever | 13 Mart 2012 Salı 17:47
arkadaşlar ben bu şarkıyı 4-5 ay önce çalmayı söktüm ama hemen hemen yarısını unuttum ancak akormerkezi sağolsun yeniden hatırladım :D bu arda bazı yerleri bozuk yada olmuyo diyenlere bi tavsiyem var müziğin çalıcağanız yerini dinleyin öyle çalmayı deneyin diğer türlü çok zor olur.


Bu Yoruma Cevap Ver
4lperen | 12 Mart 2012 Pazartesi 15:14
10 Şubat 2012 Cuma tarihinde wakfi yazmıştı:
10 Şubat 2012 Cuma tarihinde wakfi yazmıştı:
ALLAH RIZASI İÇİN BİRİ ŞUNUN AKORLARINI SÖYLERMİİİİİİİİİİİİİİİİİİİİİİİİİİİİİİİİİİİİ
PARDON ALLAH RIZASI İÇİN BİRİ BUNUN RİTMİNİ SÖYLERMİİİİİİİİİİİİİİİİİİİİİİİİİİİİ
bu şarkı bir gitar şarkısı değil akustik bir orkestra çalıyor bunu gitarla soloda sesleri taklit ediyor gibi bisi oluyor


Bu Yoruma Cevap Ver
ahrimen21 | 12 Şubat 2012 Pazar 16:16
10 Şubat 2012 Cuma tarihinde wakfi yazmıştı:
ALLAH RIZASI İÇİN BİRİ ŞUNUN AKORLARINI SÖYLERMİİİİİİİİİİİİİİİİİİİİİİİİİİİİİİİİİİİİ
PARDON ALLAH RIZASI İÇİN BİRİ BUNUN RİTMİNİ SÖYLERMİİİİİİİİİİİİİİİİİİİİİİİİİİİİ


Bu Yoruma Cevap Ver
wakfi | 10 Şubat 2012 Cuma 15:49
ALLAH RIZASI İÇİN BİRİ ŞUNUN AKORLARINI SÖYLERMİİİİİİİİİİİİİİİİİİİİİİİİİİİİİİİİİİİİ


Bu Yoruma Cevap Ver
wakfi | 10 Şubat 2012 Cuma 15:48
E--------------------------------------------------
B-10-10-10-11-10---8-8-8-8-10---------------
G-10-10-10---------- 9-9-9-----------------
D--------------------------------------------------
A--------------------------------------------------
E--------------------------------------------------

ARKADAŞLAR BU G-B TALELERİNE BERABER VURULACAK DEMEK :D B ARADA ÇOK GÜZEL OLMUŞ ELİNİZE SAĞLIK


Bu Yoruma Cevap Ver
38gitarist38 | 07 Şubat 2012 Salı 22:41
B--------8^-10-8 nasıl oluyoo ???????????


Bu Yoruma Cevap Ver
Ul@ş1905 | 05 Ocak 2012 Perşembe 21:05
24 Kasım 2011 Perşembe tarihinde Leo` yazmıştı:
ya arkdaşlar ritmi ney acaba ritimle çalmak istiyorumda
6/8 lik a ayay


Bu Yoruma Cevap Ver
asdsad2 | 03 Aralık 2011 Cumartesi 15:49
05 Kasım 2011 Cumartesi tarihinde _umut_35 yazmıştı:
07 Temmuz 2011 Perşembe tarihinde C_E_06 yazmıştı:
arkadaşlar bu 5h7 nedirr ? =/
5 den 7 ye kaydırıcaksın arkadaşım.
Kaydırma değil arkadaşım daha önceki yorumlarda da cevabı verilmiş bu sorunun bir onlara bak istersen sende. Yanlış bilgilendirmemiş olursun insanları.


Bu Yoruma Cevap Ver
qukay | 14 Kasım 2011 Pazartesi 11:35
07 Temmuz 2011 Perşembe tarihinde C_E_06 yazmıştı:
arkadaşlar bu 5h7 nedirr ? =/
5 den 7 ye kaydırıcaksın arkadaşım.


Bu Yoruma Cevap Ver
_umut_35 | 05 Kasım 2011 Cumartesi 19:01
çok güzel olmuş hızlı çalmanız lazım ama


Bu Yoruma Cevap Ver
klasman_07 | 03 Kasım 2011 Perşembe 16:23
akorlar cok iyi tabını çalamadım ama o da heralde güzzeldir eline sağlık


Bu Yoruma Cevap Ver
Somßre1912 | 15 Ekim 2011 Cumartesi 20:22
11 Eylül 2011 Pazar tarihinde asi_genc_ yazmıştı:
Ya biri yardim etsin neolur bi turlu calamiyorum alt Alta olan yerleri napcaz
E--------------------------------------------------
B-10-10-10-11-10---8-8-8-8-10---------------
G-10-10-10---------- 9-9-9-----------------
D--------------------------------------------------
A--------------------------------------------------
E--------------------------------------------------

HAni B teli İLE G teli ALT alta verilmiş ise o ki tele aynı anda vurcan


Bu Yoruma Cevap Ver
asdsad2 | 15 Ekim 2011 Cumartesi 11:24
beyler basitt bu bi çalsanız varya


Bu Yoruma Cevap Ver
asdsad2 | 15 Ekim 2011 Cumartesi 11:18
emeğe saygı kim yaptıysa iyi yapmış tam orjinali olmuş keşke sen yapsaymışsın netten bulmasaydın bende kulaktan aynısını çıkardım ama bi yerden sonra sıkıldım gerisine burdan bakarak çaldım güzel olmuş eline sağlık (sen yapmamış olsanda) :D


Bu Yoruma Cevap Ver
CaSh_Kinq | 21 Eylül 2011 Çarşamba 22:25
Ya biri yardim etsin neolur bi turlu calamiyorum alt Alta olan yerleri napcaz


Bu Yoruma Cevap Ver
asi_genc_ | 11 Eylül 2011 Pazar 12:56
Arkadaşlar Birisi bana yardım edebilr mi öğretebilir mi acaba MSN adresimi versem Noting else matter onu çalabiliyorum ama bunu anlıyamadım lütfen birisi yardımcı olabilir mi MSN adresim turkey_umut_fb@hotmail.com
Şimdiden teşekkür ediyorum.
İyi günler.


Bu Yoruma Cevap Ver
_umut_35 | 04 Eylül 2011 Pazar 18:36
güzel olmuş


Bu Yoruma Cevap Ver
The Dark Guitar | 18 Ağustos 2011 Perşembe 14:08
yeni başlayanlara çerez :D


Bu Yoruma Cevap Ver
led zeppelin | 17 Ağustos 2011 Çarşamba 05:24
15 Temmuz 2011 Cuma tarihinde asdsad2 yazmıştı:
aradaki (H) harfi hammer on demek oda 5 perdeye vur sonra 7. VURmadan bas
teşekkürler (=


Bu Yoruma Cevap Ver
C_E_06 | 16 Temmuz 2011 Cumartesi 19:00
(\) kaydırma


Bu Yoruma Cevap Ver
asdsad2 | 15 Temmuz 2011 Cuma 18:36
aradaki (H) harfi hammer on demek oda 5 perdeye vur sonra 7. VURmadan bas


Bu Yoruma Cevap Ver
asdsad2 | 15 Temmuz 2011 Cuma 18:35
arkadaşlar bu 5h7 nedirr ? =/


Bu Yoruma Cevap Ver
C_E_06 | 07 Temmuz 2011 Perşembe 19:47
bence basit


Bu Yoruma Cevap Ver
asdsad2 | 30 Nisan 2011 Cumartesi 17:10
başı kolay sonrası zor


Bu Yoruma Cevap Ver
Guitar7 | 28 Nisan 2011 Perşembe 17:01
28 Şubat 2011 Pazartesi tarihinde __MuRaT__ yazmıştı:
19 Şubat 2011 Cumartesi tarihinde C_E_06 yazmıştı:
pluck nedir arkadaşlar?
PLUCK bölümleri arkadan 2. gitar varsa o yapcak sen deil mesela sen
e--------------------------------------------------|
B--------8-10-8---------8-10-8---------------------|
G-7-9-10--------10-9-10----------------------------|
D--------------------------------------------------|
A--------------------------------------------------|
E--------------------------------------------------|

BU BÖLÜME YAPARKEN ARKADAKİ GİTAR

Pluck:
e--------------------------------------------------|
B-----3-----3-----1--------------------------------|
G---2-----2-----0-------2--------------------------|
D-0-----0-------------3----------------------------|
A-------------3------------------------------------|
E-------------------3------------------------------|

BURAYI YAPCAK TEK GİTARLA YAPCAKSAN PLUCK BÖLÜMÜ SENİ İLGİLENDİRMEZ
bilgilendirme için teşkkürler (=


Bu Yoruma Cevap Ver
C_E_06 | 10 Mart 2011 Perşembe 19:18
28 Şubat 2011 Pazartesi tarihinde __MuRaT__ yazmıştı:
Süper dostm tebrkler :) Bulup burda bizimle paylaşman da önemli zatn bunu kulaktan çıkarabilmek içn mozart gibi bişe olmak lazm .
ben teşekkür ederim güzel yorumlarınız için


Bu Yoruma Cevap Ver
asdsad2 | 06 Mart 2011 Pazar 14:03
19 Şubat 2011 Cumartesi tarihinde C_E_06 yazmıştı:
pluck nedir arkadaşlar?
PLUCK bölümleri arkadan 2. gitar varsa o yapcak sen deil mesela sen
e--------------------------------------------------|
B--------8-10-8---------8-10-8---------------------|
G-7-9-10--------10-9-10----------------------------|
D--------------------------------------------------|
A--------------------------------------------------|
E--------------------------------------------------|

BU BÖLÜME YAPARKEN ARKADAKİ GİTAR

Pluck:
e--------------------------------------------------|
B-----3-----3-----1--------------------------------|
G---2-----2-----0-------2--------------------------|
D-0-----0-------------3----------------------------|
A-------------3------------------------------------|
E-------------------3------------------------------|

BURAYI YAPCAK TEK GİTARLA YAPCAKSAN PLUCK BÖLÜMÜ SENİ İLGİLENDİRMEZ


Bu Yoruma Cevap Ver
__MuRaT__ | 28 Şubat 2011 Pazartesi 17:36
Süper dostm tebrkler :) Bulup burda bizimle paylaşman da önemli zatn bunu kulaktan çıkarabilmek içn mozart gibi bişe olmak lazm .


Bu Yoruma Cevap Ver
__MuRaT__ | 28 Şubat 2011 Pazartesi 17:34
pluck nedir arkadaşlar?


Bu Yoruma Cevap Ver
C_E_06 | 19 Şubat 2011 Cumartesi 17:13
pluck kısımları aslında çok zor değil biraz çalışmak gerekiyor


Bu Yoruma Cevap Ver
slash-is-king | 18 Ocak 2011 Salı 18:08
ben pluck kısmın anlamadım nasıl yapılıyor


Bu Yoruma Cevap Ver
asdsad2 | 02 Aralık 2010 Perşembe 16:20
Çok güzel olmuş...Netten bulmaya çok tepki gösteriyorlar ama tepki göstermenin anlamı yok. Şimdi adam x tabını y sitesinden bakacağana x tabını bizim sitemizden baksın. Bu arada Pluck ile gösterilen bölümleri ben çalmıyorum sizde çalmayın çok karışıyor çünkü


Bu Yoruma Cevap Ver
FadeToBlack! | 29 Kasım 2010 Pazartesi 18:28
bunu ben hazırlamadım nette buldum


Bu Yoruma Cevap Ver
asdsad2 | 27 Kasım 2010 Cumartesi 15:00
güzel olmus gerçekten.Ama bazı yerlerde tab eksik gibi geliyor sanki


Bu Yoruma Cevap Ver
__AzAt__ | 27 Kasım 2010 Cumartesi 11:58


Siz de Görüş Bildirin

Yorum yazma alanı Akor Merkezi üyelerine özel bir bölümdür. (Giriş Yap / Üye Ol / Şifremi Hatırlat)


PAYLAŞ

Reklam



Anket
lyricsk soruyor:
Cort X6 Nasıl?









Sonuçlar | Sonuçlar & Yorumlar
Yeni Anket | Anketler




Reklam


Radyo Dinle
AkorMerkezi.com © 2014
İletişim - Gizlilik Politikası - Kullanım Koşulları - Kurallar - Son Yorumlar - Rastgele

GitarAkor.com kolonisidir. Derleme 0,08 saniye.