Akor Tab Söz Çeviri Anasayfası
Akor|Tab|Söz|Nota Arşivi
Gitar Akorları | Tab,Söz ve Nota Anasayfası | En Yeni Şarkılar | En Popüler Şarkılar | Akor Cetveli

Bilgiler
 
Seslendiren ve Şarkı: Film Müzikleri - Pirates Of The Caribbean
Biçim: TAB - HİÇBİRİ
Tarih: 04 Aralık 2008 Perşembe
Gönderen: maho921
Toplam Okuyan: 90.237 kişi
Bu Ay Okuyan: 59 kişi
Bu Hafta Okuyan: 59 kişi
 
Beğendiniz mi? Pirates Of The Caribbean Tab sayfasını Şimdi paylaşın:

Film Müzikleri - Pirates Of The Caribbean - Tab


Puanlama:
 (86 kişi)

Pirates Of The Caribbean şarkısının diğer versiyonlarına bakın >>

Metin boyutu: ( + Büyült ) ( - Küçült)   
E----------------------0-------------
B------0-0--0-2-3-3--3---2-2-0------0
G--0-2--------------------------2-2--  2x
D------------------------------------
A------------------------------------
E------------------------------------

E----------------------0-3-3-2-0-2--------------0-2----------------
B------0-0--0-2-3-3--3-------------0--0-2-3-3-3-----0--0-3-2-0----0
G--0-2---------------------------------------------------------2---
D------------------------------------------------------------------
A------------------------------------------------------------------
E------------------------------------------------------------------

diger part

E-----0-2-3-2-2-2-2-0--0----------------------
B-0-3--------------------3-2-3-2-2-0----------
G---------------------------------------------
D---------------------------------------------
A---------------------------------------------
E---------------------------------------------

E-----0-2-3-2-2-5-2-0--0----------------------
B-0-3--------------------3-2-3-2-2-0----------
G---------------------------------------------
D---------------------------------------------
A---------------------------------------------
E---------------------------------------------
Pirates Of The Caribbean Tab, AkorMerkezi.com'da yayınlanmıştır.
http://www.akormerkezi.com


İçerik Kısa Linki:


Beğendiniz mi? Pirates Of The Caribbean Tab sayfasını Şimdi paylaşın:


Pirates Of The Caribbean Tab için Komoçotoko'dan Gelenler
Aramalar: guitar tab to pirates of the caribbean, karayip korsanları full akor, pirates of caribbean soundtrack akor, full karayip korsanları melodika notaları, a pirates of the caribbean öüziği, pirates of carabian müziği, 7 5 7 7 pirates of carribean tabs, pirates of rhe caribben tab, pirates of the caribbean korsan şarkısı, pirates of caribbean soundtrack tabs
Film Müzikleri - Pirates Of The Caribbean için Kullanıcı Görüşleri

ARKADAŞLAR KUSURUMA BAKMAYIN BU SON KISIM YANLIŞTI DÜZELTTİM...

E---------------------------------------------
B--3--5--7--5--3--2--3--2--0--2-----2------
G----------------------------------2---------
D---------------------------------------------
A---------------------------------------------
E---------------------------------------------




Bu Yoruma Cevap Ver
HARPUTLU MEHMET | 27 Ağustos 2014 Çarşamba 11:32
KULAKTAN DEVAMINI BÖYLE ÇIKARTTIM BU ARADA GİTARA BAŞLAYALI 2-3 HAFTA OLMADI ALLAH BU ADMİNDEN RAZI OLSUN.
BU SİTE SAYESİNDE EVDE GİTAR ÇALMAYI ÖĞRENDİM...

E---------------------------------------------
B--7-7-7--8--7--5-5-5--5--7-----------------
G---------------------------------------------
D---------------------------------------------
A---------------------------------------------
E---------------------------------------------


E---------------------------------------------
B-7-7-7--8--7--5--3--2--0-------------------
G---------------------------------------------
D---------------------------------------------
A---------------------------------------------
E---------------------------------------------

E---------------------------------------------
B-0--2--3--5--7--5--3--2---3--5--7--5------
G---------------------------------------------
D---------------------------------------------
A---------------------------------------------
E---------------------------------------------

E---------------------------------------------
B--3--5--7--5--3--2--3--0--2-----2---------
G-------------------------------2------------
D---------------------------------------------
A---------------------------------------------
E---------------------------------------------

ELAZIĞ


Bu Yoruma Cevap Ver
HARPUTLU MEHMET | 27 Ağustos 2014 Çarşamba 11:23
Çok kötü bune ya ?


Bu Yoruma Cevap Ver
ege99 | 21 Nisan 2012 Cumartesi 15:20
biraz eksik ama çok güzel çıkıo eline kulağına sağlık


Bu Yoruma Cevap Ver
cREC | 09 Aralık 2011 Cuma 21:12
Çok kötü.


Bu Yoruma Cevap Ver
NiCKyOq | 16 Ekim 2011 Pazar 19:11
bu sitede ağzımı açtırma yoksa küfür yağmuruna boğarım o------ççççççççççç


Bu Yoruma Cevap Ver
asdsad2 | 10 Eylül 2010 Cuma 18:18
02 Ağustos 2010 Pazartesi tarihinde asdsad2 yazmıştı:
01 Ağustos 2010 Pazar tarihinde Black_Guitar. yazmıştı:
sallama aşağıdaki yorumlardan almışın kendim çıkardım diyosun dallama...
lan dallama bak yakında ekliyecem ozman görürsün o altaki uzun tabı internetten buldum
E---------------------------------------------
B---------------0-1-1-1--3--0-0-----------
G----0-2-2--2--------------------2-0-2----
D--2-----------------------------------------
A---------------------------------------------
E---------------------------------------------

bu tabın devamın kulağımla çıkartım bunu ekliyecem diyorum ma-------------l
Özentilik yapma asdsad2 bu adam tam bir o.... ç.... dur arkadaşlar böylelerini siteden atmaları lazım


Bu Yoruma Cevap Ver
Constant1ne | 24 Ağustos 2010 Salı 17:24
doğru onu ben çalıyom


Bu Yoruma Cevap Ver
asdsad2 | 03 Ağustos 2010 Salı 21:12
uzun olan yorumdaki tab doğru ama


Bu Yoruma Cevap Ver
flomena | 03 Ağustos 2010 Salı 14:35
bunun notaları böle değil


Bu Yoruma Cevap Ver
flomena | 03 Ağustos 2010 Salı 14:34
01 Ağustos 2010 Pazar tarihinde Black_Guitar. yazmıştı:
sallama aşağıdaki yorumlardan almışın kendim çıkardım diyosun dallama...
lan dallama bak yakında ekliyecem ozman görürsün o altaki uzun tabı internetten buldum
E---------------------------------------------
B---------------0-1-1-1--3--0-0-----------
G----0-2-2--2--------------------2-0-2----
D--2-----------------------------------------
A---------------------------------------------
E---------------------------------------------

bu tabın devamın kulağımla çıkartım bunu ekliyecem diyorum ma-------------l


Bu Yoruma Cevap Ver
asdsad2 | 02 Ağustos 2010 Pazartesi 10:37
sallama aşağıdaki yorumlardan almışın kendim çıkardım diyosun dallama...


Bu Yoruma Cevap Ver
Black_Guitar. | 01 Ağustos 2010 Pazar 18:24
E---------------------------------------------
B---------------0-1-1-1--3--0-0-----------
G----0-2-2--2--------------------2-0-2----
D--2-----------------------------------------
A---------------------------------------------
E---------------------------------------------


bunu full kendi kulağımla çıkartım yakında ekleyeceğim


Bu Yoruma Cevap Ver
asdsad2 | 26 Temmuz 2010 Pazartesi 10:39
bu en iyisi


Bu Yoruma Cevap Ver
asdsad2 | 26 Temmuz 2010 Pazartesi 10:37

e--------------------------------------------------|
B--------------------------------------------------|
G--------------------------------------------------|
D--------------------------------------------------|
A-5---5-5--5-5--5-5-5---5---5-5--5-5--5-5-5-
E--------------------------------------------------|

e--------------------------------------------------|
B--------------------------------------------------|
G---------------------------------------------7----|
D--------------------------------------------------|
A-5---5-5--5-5--5-5-5---5---5-5--5-5--5-5-5---5----|
E--------------------------------------------------|

e--------------------------------------------------|
B-------------5-6-6---6-8-5-5----------------------|
G---5-7-7---7-------------------7-5-5h7------------|
D-7------------------------------------------------|
A--------------------------------------------------|
E--------------------------------------------------|

e--------------------------------------------------|
B-------------5-6-6---6-8-5-5----------------------|
G---5-7-7---7-------------------7-5-7~~------------|
D-7------------------------------------------------|
A--------------------------------------------------|
E--------------------------------------------------|

e-----------------------5-6-6---5---5--------------|
B-------------6-8-8---8-----------8----------------|
G---5-7-7---7-------------------------7------------|
D-7------------------------------------------------|
A--------------------------------------------------|
E--------------------------------------------------|

e----------5-6-------------------------------------|
B---6-8-8------------6-5-5-------------------------|
G-7------------7---7---------7-5-5h7---------------|
D--------------------------------------------------|
A--------------------------------------------------|
E--------------------------------------------------|

e--------------------------------------------------|
B-------------5-6-6---6-8-5-5----------------------|
G---5-7-7---7-------------------7-5-5h7------------|
D-7------------------------------------------------|
A--------------------------------------------------|
E--------------------------------------------------|

e--------------------------------------------------|
B-------------5-6-6---6-8-5-5----------------------|
G---5-7-7---7-------------------7-5-7~~------------|
D-7------------------------------------------------|
A--------------------------------------------------|
E--------------------------------------------------|

e-----------------------5-6-6---5---5--------------|
B-------------6-8-8---8-----------8----------------|
G---5-7-7---7-------------------------7------------|
D-7------------------------------------------------|
A--------------------------------------------------|
E--------------------------------------------------|

e----------5-6-------------------------------------|
B---6-8-8------------6-5-5-------------------------|
G-7------------7---7---------7-5-7-----------------|
D--------------------------------------------------|
A--------------------------------------------------|
E--------------------------------------------------|

e-------------------1------------------------------|
B---4/5-6-6-8--10\----3----------------------------|
G-7-----7-7-7---7\------2--------------------------|
D--------------------------------------------------|
A--------------------------------------------------|
E--------------------------------------------------|

e-6------------------------------------------------|
B-6-6----------------------------------------------|
G-----7-----7-7-7-10-------------------------------|
D-------8---7-7-7--7-------------------------------|
A--------------------------------------------------|
E--------------------------------------------------|

e--------------------------------------------------|
B-10-10-10-11-10---8-8-8-8-10----------------------|
G-10-10-10---------9-9-9---------------------------|
D--------------------------------------------------|
A--------------------------------------------------|
E--------------------------------------------------|
e--------------------------------------------------|

B-10-10-10-11-10---6/8-6-5-------------------------|
G-10-10-10---------7/9-7---7-----------------------|
D--------------------------------------------------|
A--------------------------------------------------|
E--------------------------------------------------|

e--------------------------------------------------|
B--------8-10-8---------8-10-8---------------------|
G-7-9-10--------10-9-10----------------------------|
D--------------------------------------------------|
A--------------------------------------------------|
E--------------------------------------------------|

e--------------------------------------------------|
e--------------------------------------------------|
B----8-10-8----------------------------------------|
G-10--------10-9-10-9-7-9-5-7----------------------|
D--------------------------------------------------|
A--------------------------------------------------|
E--------------------------------------------------|

e--------------------------------------------------|
B--------8^-10-8--------8--------------------------|
G-7-9-10---------7-9-10---9-7-9-5------------------|
D--------------------------------------------------|
A--------------------------------------------------|
E--------------------------------------------------|

e--------------------------------------------------|
B-10-11--------------------------------------------|
G--7-10-14-14-14-14\12---12-10-9-10-9-7-----------
D-------15-15-15-15------12-10-7--7-7-7------------|
A--------------------------------------------------|
E--------------------------------------------------|


e--------------------------------------------------|
B-10-11--------------------------------------------|
G--7-10-14-14-14-14\12---12-10-9-10-9-7------------|
D-------15-15-15-15------12-10-7--7-7-7------------|
A--------------------------------------------------|
E--------------------------------------------------|


e-------------------------------------------------------|
B-------10-------11--------10-10-10-10\8----8-6-5-6-5---|
G-----10-------10-------10-10-10-10-10\8----9-7-7-----7-|
D---12-------12-------12--------------------------------|
A-12-------12-------12----------------------------------|
E-------------------------------------------------------|


e-------------------------------------------------------|
B-------10-------11--------10-10-10-10\8----8-6-5-6-5---|
G-----10-------10-------10-10-10-10-10\8----9-7-7-----7-|
D---12-------12-------12--------------------------------|
A-12-------12-------12----------------------------------|
E-------------------------------------------------------|


Bu Yoruma Cevap Ver
asdsad2 | 26 Temmuz 2010 Pazartesi 10:36
bunun klasik gitar versiyonunu bulabilen varsa söyleyebilir mi...


Bu Yoruma Cevap Ver
StoruN | 23 Haziran 2010 Çarşamba 21:49
herkes güsel yapmış tebrikler


Bu Yoruma Cevap Ver
Espirt | 10 Aralık 2009 Perşembe 20:55
bu son daha uygun

E|---------|---------|---------|-------- -|
B|---------|---5-6-6-|-6-8-5-5-|-------- -|
G|---5-7-7-|-7-------|---------|--7-5-7- -|
D|-7-------|---------|---------|-------- -|
A|---------|---------|---------|-------- -|
E|---------|---------|---------|-------- -|

E|---------|---------|---------|-------- -|
B|---------|---5-6-6-|-6-8-5-5-|-------- -|
G|---5-7-7-|-7-------|---------|--7-5-7- -|
D|-7-------|---------|---------|-------- -|
A|---------|---------|---------|-------- -|
E|---------|---------|---------|-------- -|

E|---------|---------|---5-6-6-|-5---5-- -|
B|---------|---6-8-8-|-8-------|---8---- -|
G|---5-7-7-|-7-------|---------|-------7 -|
D|-7-------|---------|---------|-------- -|
A|---------|---------|---------|-------- -|
E|---------|---------|---------|-------- -|

E|---------|----5----|---------|-------- -|
B|---5-6-6-|--7------|---6-5-5-|-6p5--5- -|
G|-7-------|------7--|-7-------|----7--- -|
D|---------|---------|---------|-------- -|
A|---------|---------|---------|-------- -|
E|---------|---------|---------|-------- -|


Bu Yoruma Cevap Ver
everalone | 29 Kasım 2009 Pazar 12:35
E|---------|---------|---------|-------- -|
B|---------|---5-6-6-|-6-8-5-5-|-------- -|
G|---5-7-7-|-7-------|---------|--7-5-7- -|
D|-7-------|---------|---------|-------- -|
A|---------|---------|---------|-------- -|
E|---------|---------|---------|-------- -|

E|---------|---------|---------|-------- -|
B|---------|---5-6-6-|-6-8-5-5-|-------- -|
G|---5-7-7-|-7-------|---------|--7-5-7- -|
D|-7-------|---------|---------|-------- -|
A|---------|---------|---------|-------- -|
E|---------|---------|---------|-------- -|

E|---------|---------|---5-6-6-|-5-3-5-- -|
B|---------|---5-8-8-|-8-------|-------3 -|
G|---5-7-7-|-7-------|---------|-------- -|
D|-7-------|---------|---------|-------- -|
A|---------|---------|---------|-------- -|
E|---------|---------|---------|-------- -|

E|---------|----5----|---------|-------- -|
B|-----6-6-|--7------|---6-5-5-|--5---5- -|
G|-5-7-----|------7--|-8-------|----7--- -|
D|---------|---------|---------|-------- -|
A|---------|---------|---------|-------- -|
E|---------|---------|---------|-------- -|


Bu Yoruma Cevap Ver
NaMaruChe | 23 Kasım 2009 Pazartesi 19:48
Sol ile başlamışsın parça sol yüzünden uymuyor.

Parçayı burdan başlayıp çıkarmanı tavsiye ederim.

E---------------------------------------------
B---------------0-1-1-1--3--0-0-----------
G----0-2-2--2--------------------2-0-2----
D--2-----------------------------------------
A---------------------------------------------
E---------------------------------------------


Bu Yoruma Cevap Ver
TitanyumX | 20 Kasım 2009 Cuma 20:53
bence gayet düzgün usta saol


Bu Yoruma Cevap Ver
ANILKO | 03 Ekim 2009 Cumartesi 20:42
galiba bi yanlışlık var ve tam diil


Bu Yoruma Cevap Ver
teamm | 27 Nisan 2009 Pazartesi 22:55
bu tab alar eksik


Bu Yoruma Cevap Ver
burakozkul | 27 Nisan 2009 Pazartesi 13:43


Siz de Görüş Bildirin

Yorum yazma alanı Akor Merkezi üyelerine özel bir bölümdür. (Giriş Yap / Üye Ol / Şifremi Hatırlat)


PAYLAŞ

Reklam



Anket
ea27 soruyor:
Tercihiniz ?













Sonuçlar | Sonuçlar & Yorumlar
Yeni Anket | Anketler




Reklam


Radyo Dinle
AkorMerkezi.com © 2014
İletişim - Gizlilik Politikası - Kullanım Koşulları - Kurallar - Son Yorumlar - Rastgele

GitarAkor.com kolonisidir. Derleme 0,05 saniye.