Akor Tab Söz Çeviri Anasayfası
Akor|Tab|Söz|Nota Arşivi
Gitar Akorları | Tab,Söz ve Nota Anasayfası | En Yeni Şarkılar | En Popüler Şarkılar | Akor Cetveli

Bilgiler
 
Seslendiren ve Şarkı: Gece Yolcuları - Neden
Biçim: TAB - HİÇBİRİ
Tarih: 21 Nisan 2013 Pazar
Gönderen: tahagumustg
Toplam Okuyan: 8.824 kişi
Bu Ay Okuyan: 163 kişi
Bu Hafta Okuyan: 29 kişi
 
Beğendiniz mi? Neden Tab sayfasını Şimdi paylaşın:

Gece Yolcuları - Neden - Tab


Puanlama:
 (10 kişi)

Neden şarkısının diğer versiyonlarına bakın >>

Metin boyutu: ( + Büyült ) ( - Küçült)   
E--------------------------------------------
B------1-3---------1-3-----------------------
G----0-----3-1-0-------3-1-0-----------------
D--------------------------------------------
A--------------------------------------------
E--------------------------------------------

E------3-1-----------------3-1---------------
B--1-1-----3-4-3-4-1---1-1-----3-4-3-4-1-----
G--------------------------------------------
D--------------------------------------------
A--------------------------------------------
E--------------------------------------------

E----------1---------------------1-----------
B--1-3-4-3---3-4-3-4-1---1-3-4-3---3-4-3-4-1-
G--------------------------------------------
D--------------------------------------------
A--------------------------------------------
E--------------------------------------------
Neden Tab, AkorMerkezi.com'da yayınlanmıştır.
http://www.akormerkezi.com


İçerik Kısa Linki:


Beğendiniz mi? Neden Tab sayfasını Şimdi paylaşın:


Neden şarkısı için amatör kayıtları dinleyin: (Siz de Ekleyin)

Neden Tab için Komoçotoko'dan Gelenler
Aramalar: tab nedir, neden gece yolculari solo, gece yolcuları neden bass tab, neden gece yolculari gitar tab, gece yolcuları neden tabs, kor yolcu-neden, gece yolcuları neden akor ve tab, geceyolcuları neden tab, gece yolcuları neden kış, Gece yolcuları neden intro
Gece Yolcuları - Neden için Kullanıcı Görüşleri

Henüz buraya yazan çizen olmamış. Yorum yapmak için buraya tıklayabilirsiniz.


Siz de Görüş Bildirin

Yorum yazma alanı Akor Merkezi üyelerine özel bir bölümdür. (Giriş Yap / Üye Ol / Şifremi Hatırlat)


PAYLAŞ

Reklam



Anket
aroobase soruyor:
Arobase bir grup ismi için nasıldır ?








Sonuçlar | Sonuçlar & Yorumlar
Yeni Anket | Anketler




Reklam


Radyo Dinle
AkorMerkezi.com © 2014
İletişim - Gizlilik Politikası - Kullanım Koşulları - Kurallar - Son Yorumlar - Rastgele

GitarAkor.com kolonisidir. Derleme 0,03 saniye.