Akor Tab Söz Çeviri Anasayfası
Akor|Tab|Söz|Nota Arşivi
Gitar Akorları | Tab,Söz ve Nota Anasayfası | En Yeni Şarkılar | En Popüler Şarkılar | Akor Cetveli

Bilgiler
 
Seslendiren ve Şarkı: Gökhan Türkmen - Büyük İnsan
Biçim: TAB - HİÇBİRİ
Tarih: 03 Nisan 2009 Cuma
Gönderen: TopalAhTaPoT
Toplam Okuyan: 47.923 kişi
Bu Ay Okuyan: 1.051 kişi
Bu Hafta Okuyan: 222 kişi
 
Beğendiniz mi? Büyük İnsan Tab sayfasını Şimdi paylaşın:

Gökhan Türkmen - Büyük İnsan - Tab


Puanlama:
 (62 kişi)

Büyük İnsan şarkısının diğer versiyonlarına bakın >>

Metin boyutu: ( + Büyült ) ( - Küçült)   
E|----------------------------------------------------------------------------|
B|----0------0------------------------------0-------0-------------------------|
G|------0--2---2--0--2--0---------------------0--2------2--0--2--0------------|
D|--2------------------------3---2-------2---------------------------3---2----|
A|----------------------------------------------------------------------------|
E|----------------------------------------------------------------------------|



|---0-------0-------------------------------------------------------|
|-----1---3---3--1--3--1--0----1--0--1--0---------------------------|
|-----------------------------2--------------2--0--2--0----0--------|
|--2-----------------------------------------------------3----2-----|
|-------------------------------------------------------------------|
|-------------------------------------------------------------------|
Büyük İnsan Tab, AkorMerkezi.com'da yayınlanmıştır.
http://www.akormerkezi.com


İçerik Kısa Linki:


Beğendiniz mi? Büyük İnsan Tab sayfasını Şimdi paylaşın:


Büyük İnsan Tab için Komoçotoko'dan Gelenler
Aramalar: buyuk insan tsb, büyük insana tab, byk insan byk insan, büyük insan notaları piyano, susma gitar solo tab, gökhan türkmen - büyük insan, büyük insan ta, gokhan turkmen buyuk insan gitar notalari, gökhan türkmen büyük akor ve nota, gökhan türkmen büyük insan solo akor
Gökhan Türkmen - Büyük İnsan için Kullanıcı Görüşleri

09 Haziran 2009 Salı tarihinde TopalAhTaPoT yazmıştı:
E|----------------------------------------------------------------------------------------|
B|----0------0--------------------------0-------------0---------------------------------|
G|------0--2---2--0--2--0---(0)--------------0--2------2--0--2--0---(0)------------|
D|--2------------------------3-----2-----------------------------------3----2----------|
A|----------------------------------------------------------------------------------------|
E|----------------------------------------------------------------------------------------|

Böle daha güzel oluyo heralde :)
E|-------------------------------------
B|----0------0-------------------------
G|------0--2---2--0--2--0---(0)-------- bnce burdan sonrası olmamış.
D|--2------------------------3-----2---
A|------------------------------------------
E|------------------------------------------


Bu Yoruma Cevap Ver
mesutonur | 28 Mayıs 2012 Pazartesi 13:41
laf atmaya kalkışmyın kesinlikle süper eline sağlık..


Bu Yoruma Cevap Ver
mesutonur | 28 Mayıs 2012 Pazartesi 13:38
ellerine sağlık güzel olmuş..


Bu Yoruma Cevap Ver
rzkvlk | 29 Ocak 2012 Pazar 19:55
güzel olmuş.. eline sağlık.. tabi iki tel çalarak hatta bazı yerlede tek telden saz gibi gitmek daha uygun oluyo bu şarkı için..


Bu Yoruma Cevap Ver
m@mi | 04 Haziran 2011 Cumartesi 01:34
İsterseni böyle çaLın arkadaşLar pek bundan bişi anLaşıLmıyor

0-7- 3-5-7-5-3-5-3-1-0


Bu Yoruma Cevap Ver
KıRıK_KaLeM_56 | 10 Mayıs 2011 Salı 19:48
ahtapot haklı öyle daha hoş geliyor kulağa.ama arkadaşınkide güzel ellerine sağlık


Bu Yoruma Cevap Ver
ugur2465 | 16 Eylül 2010 Perşembe 16:39
saçmalık. arkadaslar genel hatlarıyla melodi oluyor ama bu böle calınmaz yazmakla urasamam simdi ama 2 tel yeterli dogrusu da. ayrıca istediginiz gibi transpoze edilebilir.. mesela
d: 0/7v--5-7-5v---5-------
a:------8---------8----8-6-5 .... die başlar transpoze edilebilir kafadan yazdım. sakın yanlıs demeyin beceremesseniz siz çalamadıgınızdandır. diyorum başarılar diliyorm ;)


Bu Yoruma Cevap Ver
loneAlone | 24 Temmuz 2010 Cumartesi 02:06
gÜ><el olmuş dostum eline sağlık......


Bu Yoruma Cevap Ver
GiKaTBe | 30 Haziran 2010 Çarşamba 13:05
güzel olmş paylşm için tşkkrler...


Bu Yoruma Cevap Ver
eMReRdeM | 18 Haziran 2010 Cuma 18:21
ELİNE SAĞLIK.


Bu Yoruma Cevap Ver
^^==SENYOR==^^ | 15 Mayıs 2010 Cumartesi 20:15
30 Ocak 2010 Cumartesi tarihinde loneAlone yazmıştı:
14 Ocak 2010 Perşembe tarihinde avedon yazmıştı:
süper olmuş eline sağlık
kardeş tab doğru fakat transpoze edip 2 telle çalarsanız yani hammer pulse ve slide ları da eklerseniz orjinali çıkıo vee intronun devamı kendiğinden geliyo... beni uurastırma sen yap da paylas yaw :))
Uzun ıs aga sen yap işte :D


Bu Yoruma Cevap Ver
TopalAhtapot2 | 31 Ocak 2010 Pazar 14:42
süper olmuş eline sağlık


Bu Yoruma Cevap Ver
avedon | 14 Ocak 2010 Perşembe 13:19
güzel olmuş..


Bu Yoruma Cevap Ver
lordbaba | 09 Ekim 2009 Cuma 21:04
çok güzel


Bu Yoruma Cevap Ver
ß@R!$ | 04 Ekim 2009 Pazar 15:47
Teşekkürler..


Bu Yoruma Cevap Ver
TopalAhTaPoT | 03 Ekim 2009 Cumartesi 18:49
tebrik ederim şarkıyı az dinlemiş olsam da çaldığımda aklıma geliyor


Bu Yoruma Cevap Ver
bekocomtr | 03 Ekim 2009 Cumartesi 13:47
bence güzel olmuş emeğe saygııı...


Bu Yoruma Cevap Ver
melekangel4 | 03 Ekim 2009 Cumartesi 13:41
valla güzel olmuşşş eline sağlık geşke nakarattan fazlası da olsaydı:):)


Bu Yoruma Cevap Ver
sessiztranzpoze | 24 Temmuz 2009 Cuma 16:17
27 Haziran 2009 Cumartesi tarihinde tırabizan yazmıştı:
eline sağlık TopalAhTaPoT arkadasın dediği gibi sol telı olunca arada daha güzel oluyo
oda benim zaten :)


Bu Yoruma Cevap Ver
TopalAhTaPoT | 27 Haziran 2009 Cumartesi 23:12
eline sağlık TopalAhTaPoT arkadasın dediği gibi sol telı olunca arada daha güzel oluyo


Bu Yoruma Cevap Ver
tırabizan | 27 Haziran 2009 Cumartesi 23:07
E|----------------------------------------------------------------------------------------|
B|----0------0--------------------------0-------------0---------------------------------|
G|------0--2---2--0--2--0---(0)--------------0--2------2--0--2--0---(0)------------|
D|--2------------------------3-----2-----------------------------------3----2----------|
A|----------------------------------------------------------------------------------------|
E|----------------------------------------------------------------------------------------|

Böle daha güzel oluyo heralde :)


Bu Yoruma Cevap Ver
TopalAhTaPoT | 09 Haziran 2009 Salı 23:45
Teşekkürler :)


Bu Yoruma Cevap Ver
TopalAhTaPoT | 26 Mayıs 2009 Salı 22:12
16 Nisan 2009 Perşembe tarihinde onur0 yazmıştı:
güzel olmus ellerne saglk ...
vallah billah çok güzel olmuş tebrik edrm


Bu Yoruma Cevap Ver
samet71 | 26 Mayıs 2009 Salı 17:51
elıne saglık guzl olmus


Bu Yoruma Cevap Ver
minikejder | 25 Mayıs 2009 Pazartesi 20:35
güzel olmuş


Bu Yoruma Cevap Ver
Jungle God | 04 Mayıs 2009 Pazartesi 15:02
Güzel Olmuş


Bu Yoruma Cevap Ver
Jungle God | 23 Nisan 2009 Perşembe 19:28
GÜZEL


Bu Yoruma Cevap Ver
ESAS_MECAZ | 18 Nisan 2009 Cumartesi 22:16
güzel olmus ellerne saglk ...


Bu Yoruma Cevap Ver
onur0 | 16 Nisan 2009 Perşembe 17:16


Siz de Görüş Bildirin

Yorum yazma alanı Akor Merkezi üyelerine özel bir bölümdür. (Giriş Yap / Üye Ol / Şifremi Hatırlat)


PAYLAŞ

Reklam



Anket
hohohoho2001 soruyor:
Justin Bieber'i Hangi Şarkısıyla Tanıdınız?













Sonuçlar | Sonuçlar & Yorumlar
Yeni Anket | Anketler




Reklam


Radyo Dinle
AkorMerkezi.com © 2014
İletişim - Gizlilik Politikası - Kullanım Koşulları - Kurallar - Son Yorumlar - Rastgele

GitarAkor.com kolonisidir. Derleme 0,06 saniye.