Akor Tab Söz Çeviri Anasayfası
Akor|Tab|Söz|Nota Arşivi
Gitar Akorları | Tab,Söz ve Nota Anasayfası | En Yeni Şarkılar | En Popüler Şarkılar | Akor Cetveli

Bilgiler
 
Seslendiren ve Şarkı: Gökhan Türkmen - Rüya
Biçim: TAB - SOLO
Tarih: 31 Ekim 2010 Pazar
Gönderen: bboykalpsiz
Toplam Okuyan: 8.065 kişi
Bu Ay Okuyan: 1 kişi
Bu Hafta Okuyan: 26 kişi
 
Beğendiniz mi? Rüya Tab sayfasını Şimdi paylaşın:

Gökhan Türkmen - Rüya - Tab


Puanlama:
 (1 kişi)

Rüya şarkısının diğer versiyonlarına bakın >>

Metin boyutu: ( + Büyült ) ( - Küçült)   
e------------------------------------------------------
b---------------------------0-0------------------------
g-1-2-1-1--1-2-1-1--1-2-1-2-----2-2-1-1-------1--------
d---------------------------------------4-2-4---4-2----


b--------------------------------------------------
g---1------1-1--------1---2-2-1-1-----------1-------
d-4---4-4------4-4--4---4---------4-4-2-2-4---4-2---


b---------------------------------------------------
g--------------------------1-2-1-1------------------
d-2-4-2-2--2-4--2-2--2-4-2---------4--4-4-2-0-2-----

b--------------------------------------------------------
g--------------------------0-0---------------------------
d-2-0-2-2--2-0--2-2--2-0-2-----4-4-2-2-0-0-2-0-2-0-------
a--------------------------------------------------4-----

umarım kaydırmamışımdır herkeze kolay gelsinnnnnnn......
Rüya Tab, AkorMerkezi.com'da yayınlanmıştır.
http://www.akormerkezi.com


İçerik Kısa Linki:


Beğendiniz mi? Rüya Tab sayfasını Şimdi paylaşın:



Rüya Tab için Komoçotoko'dan Gelenler
Aramalar: gökhan türkmen bir rüya tab, gökhan türkmen biraz ayrılık tab, belki bende hata yaptim gitar tab, gökhan türkmen rüya orjinal akor, rüya tab, gökhan türkmen rüya akor, gokan ruya tab, rüya gökhan türkmen, ruyatab, gökhan türkmen dön tab
Gökhan Türkmen - Rüya için Kullanıcı Görüşleri

b---------------------------------------------------------------
g---------------------------------1-2-1-----------------------
d-2-4-2-2--2-4--2-2--2-4-2-----------4-4--4-2-0-2-0----

b------------------------------------------------------------------
g---------------------------------0-0-----------------------------
d-0-2-0-0---0-2--0-0--0-2-0------4-4-2-2-0-0-2-0-2-0-----
a--------------------------------------------------------------4---
arkadaşlar son 2 sıra yalnış olmuşşşşş doğrusu bu ne yazıkki kaydırmışızzz


Bu Yoruma Cevap Ver
bboykalpsiz | 31 Ekim 2010 Pazar 18:35
b---------------------------------------------------------------
g---------------------------------1-2-1-----------------------
d-2-4-2-2--2-4--2-2--2-4-2-----------4-4--4-2-0-2-0----

b------------------------------------------------------------------
g---------------------------------0-0-----------------------------
d-0-2-0-0---0-2--0-0--0-2-0------4-4-2-2-0-0-2-0-2-0-----
a--------------------------------------------------------------4---
arkadaşlar son 2 sıra yalnış olmuşşşşş doğrusu bu ne yazıkki kaydırmışızzz


Bu Yoruma Cevap Ver
bboykalpsiz | 31 Ekim 2010 Pazar 18:02


Siz de Görüş Bildirin

Yorum yazma alanı Akor Merkezi üyelerine özel bir bölümdür. (Giriş Yap / Üye Ol / Şifremi Hatırlat)


PAYLAŞ

Reklam



Anket
Cold Night soruyor:
Başlangıç için hangisi?







Sonuçlar | Sonuçlar & Yorumlar
Yeni Anket | Anketler




Reklam


Radyo Dinle
AkorMerkezi.com © 2014
İletişim - Gizlilik Politikası - Kullanım Koşulları - Kurallar - Son Yorumlar - Rastgele

GitarAkor.com kolonisidir. Derleme 0,05 saniye.