Akor Tab Söz Çeviri Anasayfası
Akor|Tab|Söz|Nota Arşivi
Gitar Akorları | Tab,Söz ve Nota Anasayfası | En Yeni Şarkılar | En Popüler Şarkılar | Akor Cetveli

Bilgiler
 
Seslendiren ve Şarkı: Gökhan Türkmen - Rüya
Biçim: TAB - HİÇBİRİ
Tarih: 05 Kasım 2010 Cuma
Gönderen: bboykalpsiz
Toplam Okuyan: 6.437 kişi
Bu Ay Okuyan: 116 kişi
Bu Hafta Okuyan: 26 kişi
 
Beğendiniz mi? Rüya Tab sayfasını Şimdi paylaşın:

Gökhan Türkmen - Rüya - Tab

  (versiyon 2)
Puanlama:
 (15 kişi)

Rüya şarkısının diğer versiyonlarına bakın >>

Metin boyutu: ( + Büyült ) ( - Küçült)   
b---------------------------0-0----------------------
g-1-2-1-1--1-2-1-1--1-2-1-2-----2-2-1-1-------1------
d---------------------------------------4-2-4---4-2--

b-----------------------------------------------------
g---1------1-1--------1---2-2-1-1-----------1---------
d-4---4-4------4-4--4---4---------4-4-2-2-4---4-2-----

b-----------------------------------------------------
g--------------------------1-2-1----------------------
d-2-4-2-2--2-4--2-2--2-4-2-------4-4--4-2-0-2-0-------

b-----------------------------------------------------
g---------------------------0-0-----------------------
d-0-2-0-0--0-2--0-0---0-2-0-----4-4-2-2-0-0-2-0-2-0---
a---------------------------------------------------4-

arkadaşlar bi tane daha göndedim ama onda bi yalnşlık var 
inşallah bu yayınlarlar süsleyerek çalarsanız aynısı oluyoo
yeni başlayan arkadaşlara kolaylık olsun diye böle yazdım 
şimdiden kolay gelsin ...........
Rüya Tab, AkorMerkezi.com'da yayınlanmıştır.
http://www.akormerkezi.com


İçerik Kısa Linki:


Beğendiniz mi? Rüya Tab sayfasını Şimdi paylaşın:


Rüya şarkısı için amatör kayıtları dinleyin: (Siz de Ekleyin)

Rüya Tab için Komoçotoko'dan Gelenler
Aramalar: gökhan türkmen rüya akor, rüya tab, gokhan turkmen tab, Gökhan Türkmen - Rüya, ruya gokhan, rüya tab gökhan türkmen, gokhan turkmen, gökhan türkmen rüya, rüya, ruya gokhan turkmen
Gökhan Türkmen - Rüya için Kullanıcı Görüşleri

tebrikler denedim hemen çok hoş olmuş ben pek süsleyemedim halde yinede süper ellerine sağlık :D


Bu Yoruma Cevap Ver
aybişş | 12 Kasım 2010 Cuma 02:02


Siz de Görüş Bildirin

Yorum yazma alanı Akor Merkezi üyelerine özel bir bölümdür. (Giriş Yap / Üye Ol / Şifremi Hatırlat)


PAYLAŞ

Reklam



Anket
rock_man_26 soruyor:
Pentagram albümlerinde hangisi daha çok hangisi sizin zevkinize hitap etmektedir?







Sonuçlar | Sonuçlar & Yorumlar
Yeni Anket | Anketler




Reklam


Radyo Dinle
AkorMerkezi.com © 2014
İletişim - Gizlilik Politikası - Kullanım Koşulları - Kurallar - Son Yorumlar - Rastgele

GitarAkor.com kolonisidir. Derleme 0,03 saniye.