Akor Tab Söz Çeviri Anasayfası
Akor|Tab|Söz|Nota Arşivi
Gitar Akorları | Tab,Söz ve Nota Anasayfası | En Yeni Şarkılar | En Popüler Şarkılar | Akor Cetveli

Bilgiler
 
Seslendiren ve Şarkı: Grup 84 - Affet
Biçim: TAB -
Tarih: 05 Haziran 2006 Pazartesi
Gönderen: golgeoyunu
Toplam Okuyan: 17.116 kişi
Bu Ay Okuyan: 166 kişi
Bu Hafta Okuyan: 26 kişi
 
Beğendiniz mi? Affet Tab sayfasını Şimdi paylaşın:

Grup 84 - Affet - Tab


Puanlama:
 (9 kişi)

Affet şarkısının diğer versiyonlarına bakın >>

Metin boyutu: ( + Büyült ) ( - Küçült)   
Affet


E-----------------------------------------------------------------     
B----3----5--6--5---3--2----2--3--2-------------------------------  
G--2---------------------3-----------3--2-2-----------------------      
D-----------------------------------------------------------------        
A-----------------------------------------------------------------       
E----------------------------------------------------------------- 
   Off    yine   kapalı     tüm    kapılar

E-----------------------------------------------------------------     
B----3----5--6--5---3--2----2--3--2-------------------------------  
G--2---------------------3-----------3--2-2-----------------------      
D-----------------------------------------------------------------        
A-----------------------------------------------------------------       
E----------------------------------------------------------------- 
    Sor     beni    en     uzak meyhaneye   



Bb               Dm
Sorda al cevabı varmıymış başkası
Bb               Dm
Sahibi olsun yüreğimin
Bb                 Dm 
Hatam var elbet ama asla büyük aşk
Bb                Dm
Ezdirmez kendini ezilmez

Dm               Bb           Dm      }
Affet ne olur bu saf deli yüreğimi    }
Dm             Bb           Dm        }
Ağla ağlaki sula kurak bedenimi       }  2 kere
Bb                   Dm               }
Olmadımki senden başkasıyla asla      }
Bb             Dm                     }
Kastınmı var söyle bu cana            }

Bb                     Dm
aaaaaaa  aaa  aaaaaaa  aaaa

Bb                     Dm
Olmadımı kalamadınmı yanımda
Bb                     Dm
Sensiz bir hiçmişim ben aslında
Bb                     Dm
Hadi gel gel kurtar acımdan
Bb                     Dm
Sıcaklığın hep benimle yanımda

E-----------------------------------------------------------------     
B----3----5--6--5---3--2----2--3--2-------------------------------  
G--2---------------------3-----------3--2-2-----------------------      
D-----------------------------------------------------------------        
A-----------------------------------------------------------------       
E----------------------------------------------------------------- 
    Dm               Bb           Dm      
    Affet ne olur bu saf deli yüreğimi   

E-----------------------------------------------------------------     
B----3----5--6--5---3--2----2--3--2-------------------------------  
G--2---------------------3-----------3--2-2-----------------------      
D-----------------------------------------------------------------        
A-----------------------------------------------------------------       
E----------------------------------------------------------------
   Dm             Bb           Dm        
   Ağla ağlaki sula kurak bedenimi 

E-----------------------------------------------------------------     
B---------------------3---5--3--3---5--6--------------------------    
G-3---2--3-3---2--3-----------------------------------------------       
D-----------------------------------------------------------------        
A-----------------------------------------------------------------       
E-----------------------------------------------------------------     
     Bb                   Dm               
     Olmadımki senden başkasıyla asla

E-----------------------------------------------------------------     
B---------------------3---5--3--3---------------------------------    
G-3---2--3-3---2--3-----------------------------------------------       
D-----------------------------------------------------------------        
A-----------------------------------------------------------------       
E-----------------------------------------------------------------   
    Bb             Dm                     
    Kastınmı var söyle bu cana       

NOt: Arkadaşlar nakaratı ve girişteki bölümü ister tabla ister akorla çalabilirsiniz.

Affet Tab, AkorMerkezi.com'da yayınlanmıştır.
http://www.akormerkezi.com


İçerik Kısa Linki:


Beğendiniz mi? Affet Tab sayfasını Şimdi paylaşın:


Affet Tab için Komoçotoko'dan Gelenler
Aramalar: grup 84 affet tubidy, affet seksendört akor, grup 84, affet akor 84, affet ne olur bu saf deli yüreğimi ritim ne, seksendört affet gitar tabl, affet 84 akor, tubidy grup seksendort karagozlum, affetgitar tab, grup 84 hatiran sormaz
Grup 84 - Affet için Kullanıcı Görüşleri

dostum çok güzel olmuş başarılarının devamını diliyorum...


Bu Yoruma Cevap Ver
metalcover | 14 Mayıs 2011 Cumartesi 19:44
22 Temmuz 2006 Cumartesi tarihinde golgeoyunu yazmıştı:
Bb yi bilmeyen arkadaşlar sizlere sesleniyorum.Bb si bemol majördür.
E------------------
B--------------3--
G--------------3--
D--------------3--
A-----1-----------
E-----------------
böle basılır.
saol ya çok ii ettn


Bu Yoruma Cevap Ver
_FERHAT_dilik | 27 Mart 2011 Pazar 16:41
19 Eylül 2008 Cuma tarihinde baddboy_cs yazmıştı:
kardeş  sonlarda bi yanlışlık var bence ama bulamıyorum kusura bakma "/fck/editor/images/smiley/msn/confused_smile.gif" alt=""/>
üst üç tele(bas tellerine)- aşağı -aşağı- alt tellere yani (tiz tellerine) -aşağı -tekrar bas yaparak -aşağı-

yani hep aşağı BAS-BAS-TİZ-BAS


Bu Yoruma Cevap Ver
brk07 | 27 Eylül 2009 Pazar 11:26
14 Ekim 2006 Cumartesi tarihinde r.o.h yazmıştı:
onur kardeş aydınlaabilirmisin bizi bu ufak detaylar konusunda merak ettim
mesela dm lerden önce ne :D artis ya :D


Bu Yoruma Cevap Ver
Donz05 | 09 Nisan 2009 Perşembe 20:49
pardon:<br/>
e-------------------------------------------<br/>
b----------------------------------------3---5---3<br/>
g---3---2---3---3----2----3---3-----------<br/>
d-------------------------------------------<br/>
a----------------------------------------------<br/>
e---------------------------------------------<br/>
:)bu daha ii(kastınmı var syle bu cana )


Bu Yoruma Cevap Ver
baddboy_cs | 19 Eylül 2008 Cuma 16:42
kardeş&nbsp; sonlarda bi yanlışlık var bence ama bulamıyorum kusura bakma "/fck/editor/images/smiley/msn/confused_smile.gif" alt=""/>


Bu Yoruma Cevap Ver
baddboy_cs | 19 Eylül 2008 Cuma 16:32
<p>tab yapabiliyorum ama şarkıyı &ccedil;alamıyorum.ritim bulamıyorum ritmini yazarsanız sevinirim.Ama şu şekil biliyorum aşağı aşağı yukarı yukarı gibi.herkese şimdiden teşekk&uuml;r ederim.</p>


Bu Yoruma Cevap Ver
se7en_ | 30 Temmuz 2008 Çarşamba 14:17
<p>hakkaten g&uuml;sel eline kulağına sağlık...<br/>
</p>


Bu Yoruma Cevap Ver
kayfen | 25 Temmuz 2008 Cuma 14:00
s&uuml;per olmuş bence<br/>


Bu Yoruma Cevap Ver
özgünasi | 01 Temmuz 2008 Salı 20:39
saol hoş olmuş.. <br/>


Bu Yoruma Cevap Ver
redanblue | 26 Haziran 2008 Perşembe 09:46
S&uuml;per bir şarkı tab ve akorlar doğru &ccedil;ok sağol


Bu Yoruma Cevap Ver
saction | 06 Haziran 2008 Cuma 13:42
arkadaşlar dm lerden önce bir am koyarsanız daha iyi uyuyo gibi.... bu arada Bb nin ne olduğunu bende yeni öğrendim : )


Bu Yoruma Cevap Ver
Resinder | 19 Ağustos 2007 Pazar 17:57
Fazla söze gerek yok süpper olmuşşş


Bu Yoruma Cevap Ver
carnaval_anil | 01 Temmuz 2007 Pazar 15:53
aga seninle kalplerimiz bir:)) demin çıkardım kendim bide gireyim siteye dedim acaba var mı yapan yada doğrumudur dedim aynısı walla:)) helal olsun sana. sen yollamasaydın ben yollicaktım. Bu arada onur şu ufak detayları sölersen sevinirim


Bu Yoruma Cevap Ver
TheRockula | 09 Kasım 2006 Perşembe 21:25
onur kardeş aydınlaabilirmisin bizi bu ufak detaylar konusunda merak ettim


Bu Yoruma Cevap Ver
r.o.h | 14 Ekim 2006 Cumartesi 14:41
guzel ama zaten yazmissin hepsini ama , cok ufak detaylari ekleyebilirdin cok basit zaten yazdigin seylere azicik ek yaptikmi super , birebir olur. mesele dm lerden once neyse uzun is, ama millet yapar zaten oralari calarken , eline saglik.


Bu Yoruma Cevap Ver
onur232323 | 11 Ekim 2006 Çarşamba 06:28
süpeer ellerine sağlk


Bu Yoruma Cevap Ver
üye-silinmiş | 10 Ekim 2006 Salı 23:40
iyi fazla söyleyecek birşeyde yok


Bu Yoruma Cevap Ver
Kara61 | 09 Ekim 2006 Pazartesi 16:14
arkadaşlar belki melodisi gidiyr olabilir ama bana kalırsa yanlış çünkü adamlar g5 - e5 basıo ama burda onlardan eser yok. ama arkadaş aynı melodiyi bareli olarak yazdıysa ellerine sağlık


Bu Yoruma Cevap Ver
ermooo | 08 Ekim 2006 Pazar 10:26
wallaa cok güsel olmus ellerine saglık


Bu Yoruma Cevap Ver
üye-silinmiş | 06 Ekim 2006 Cuma 12:11
güzel.zaten seksendört'ün şarkılarına yakışır bir biçim.


Bu Yoruma Cevap Ver
aylin_13 | 07 Ağustos 2006 Pazartesi 17:43
Bb yi bilmeyen arkadaşlar sizlere sesleniyorum.Bb si bemol majördür.
E------------------
B--------------3--
G--------------3--
D--------------3--
A-----1-----------
E-----------------
böle basılır.


Bu Yoruma Cevap Ver
golgeoyunu | 22 Temmuz 2006 Cumartesi 13:07
arklar altaki yanlış oldu --- arklar Bb nin ne işi var biri beni aydınlatsın


Bu Yoruma Cevap Ver
üye-silinmiş | 21 Temmuz 2006 Cuma 20:15
beyler Bb nin ne oldugunu bilmiyor olabilir bu kadar tepki vermeyin .. Ne oldugunu bir - iki kisi aciklayici olarak soyler olur biter ..


Bu Yoruma Cevap Ver
Kirkk | 17 Temmuz 2006 Pazartesi 16:34
alsana bı tane daha adam dıgerlerının yorumlarına gore sarkıy ayorum yapıyo admının bu duruma mudahale etmesını beklıyoruz lutfen


Bu Yoruma Cevap Ver
gokhant07 | 07 Temmuz 2006 Cuma 20:20
ya beyler bu ne bıcım soru yok artık ya "bb ne" abı bu kadarı nı da bılmıyon san sen bu taba bakıp ta ne yapmayı dusunuyon once alıp su gıtarı bı calısın bı anlayın bı ogrenın bole gelıp sarkının yorumların bb ne demeyın ayıp oluyo ama ya valla sarkının tabının nasıl olup olmadıgı teknık olarak degerlendırelım burad bole sacma seylerle kalabalık yapmayalım. tamam ogrenmek ısteyebılırsın ama ınternette mıllete bb ne dıyerek degıl alacagın cevap zaten senı kafada korertır once su gıtarı bıen bırısınden bı muddet ogrenın


Bu Yoruma Cevap Ver
gokhant07 | 07 Temmuz 2006 Cuma 20:18
hoşş eline sağlık... bu arada aşağıdaki arkadaş, Bb= si bemol majör.... yani simajörü bas daha sonra yukarı kaydır 1 perde ok? iyi çalışmalar herkese


Bu Yoruma Cevap Ver
gitarçalanadam | 06 Temmuz 2006 Perşembe 22:21
Bb ne arkadaşlar


Bu Yoruma Cevap Ver
üye-silinmiş | 05 Temmuz 2006 Çarşamba 21:50
hoş bişi olmuştur umarım yorumlara bakarak sölüyorrum


Bu Yoruma Cevap Ver
(¯`·LevenT·´¯) | 30 Haziran 2006 Cuma 10:10
eline sagl1k erayim paylasiminin devam1n1 bekliyruz :P


Bu Yoruma Cevap Ver
guitarmaster | 09 Haziran 2006 Cuma 20:08
bunun rıtımı nasıl olacak nolur cvb yazın optum sızın en guzel yerınızden gıtarıs arkadaslarım


Bu Yoruma Cevap Ver
üye-silinmiş | 07 Haziran 2006 Çarşamba 11:14
iyi iyi güzel...sağol...


Bu Yoruma Cevap Ver
fender_marshall | 07 Haziran 2006 Çarşamba 08:52
güzel olmuş dostum da girişteki tabı kalın la dan başlayarak yapsaydın daha güzel olurdu. tebrix.başarılar..


Bu Yoruma Cevap Ver
aykutkerem | 06 Haziran 2006 Salı 19:25


Siz de Görüş Bildirin

Yorum yazma alanı Akor Merkezi üyelerine özel bir bölümdür. (Giriş Yap / Üye Ol / Şifremi Hatırlat)


PAYLAŞ

Reklam



Anket
bassguitaristt soruyor:
Sizce İbanez Gsr200ex Bass Gitar Nasıl?








Sonuçlar | Sonuçlar & Yorumlar
Yeni Anket | Anketler




Reklam


Radyo Dinle
AkorMerkezi.com © 2014
İletişim - Gizlilik Politikası - Kullanım Koşulları - Kurallar - Son Yorumlar - Rastgele

GitarAkor.com kolonisidir. Derleme 0,06 saniye.