Akor Tab Söz Çeviri Anasayfası
Akor|Tab|Söz|Nota Arşivi
Gitar Akorları | Tab,Söz ve Nota Anasayfası | En Yeni Şarkılar | En Popüler Şarkılar | Akor Cetveli

Bilgiler
 
Seslendiren ve Şarkı: Halil Sezai Paracıkoğlu - Paramparça
Biçim: Akor, Gitar Akorları - FULL
Tarih: 07 Haziran 2011 Salı
Gönderen: Schw
Toplam Okuyan: 207.174 kişi
Bu Ay Okuyan: 5.991 kişi
Bu Hafta Okuyan: 1.532 kişi
 
Beğendiniz mi? Paramparça Akor sayfasını Şimdi paylaşın:
DİKKAT!
Paramparça Akor sayfasını düzgün görüntüleyemiyor olabilirsiniz.
Eğer böyle bir sıkıntınız varsa tıklayın.

Halil Sezai Paracıkoğlu - Paramparça - Akor


Puanlama:
 (75 kişi)

Paramparça şarkısının diğer versiyonlarına bakın >>

Metin boyutu: ( + Büyült ) ( - Küçült)   
INTRO: Basit bir şekilde solosunu yazdım, istediğiniz şekilde süsleyebilirsiniz.

E-----------------------------------------------------------
A-----------------------------------------------------------
D----14-15-14-12-10----12-14-12-10-9-----9----------9-10----
G------------------------------------------12-10-12---------
B-----------------------------------------------------------
E-----------------------------------------------------------


E-----------------------------------------------------------
A-----------------------------------------------------------
D----12-14-12-10-9-----10-9-7-5-----7-5-3-2---3-2-----------
G-----------------------------------------------------------
B-----------------------------------------------------------
E-----------------------------------------------------------


Dm               Bb       C         Am
ölü ask diyarlarina beni sen attin ya
C             Am               C       Am  Bb - Am
icim paramparca viraneyim divaneyim aa ah
Dm             Bb   C               Am
sesin yanki olur bogar her adim ya
C             Am               C       Am  Bb - Am
icim paramparca viraneyim divaneyim aa ah

Dm        Am   C
haykirsam ellerimi 
C          Bb  C  Dm
acsam yalniz sana aah
Dm        Am   C
aglasam cocuk gibi 
C          Bb  C  Dm
eskileri anlatsam 

Dm       Gm         C        Bb
dervis gibi apdal gibi tapar gibi 
        Am  Bb - Am
paramparca  aa ah
Dm        Am   C
haykirsam cocuk gibi...
Paramparça Akor, AkorMerkezi.com'da yayınlanmıştır.
http://www.akormerkezi.com


İçerik Kısa Linki:


Beğendiniz mi? Paramparça Akor sayfasını Şimdi paylaşın:


Halil Sezai Paracıkoğlu - Paramparça KULLANILAN AKORLAR (Beta)
Bb1 1 3 3 3 1x 1 3 3 3 1x x 0 3 3 1
Amx 0 2 2 1 0x 0 7 5 5 5x 3 2 2 1 0
C0 3 2 0 1 00 3 5 5 5 33 3 2 0 1 0
Dmx 0 0 2 3 1
Gm3 5 5 3 3 3x x 0 3 3 3
Şarkıda kullanılan akorların farklı şekillerde basılışlarıdır. (Detaylı bilgi)


Paramparça Akor için Komoçotoko'dan Gelenler
Aramalar: halil sezai isyan gitar notası, paramparça tab gitar, Halil paramparca akor merkezi, paramparça halil sezai solo, içim paramparça solo, halil sezai isyan paramparça akor, paranparça halil akor, am içim, parmparca akor, kara gözlüm akor
Halil Sezai Paracıkoğlu - Paramparça için Kullanıcı Görüşleri

A YAYA RİTİM OLARAK BUNU KULLANIN İSTERSENİZ. BAZI NOKTALARINDA KENDINIZ AYARLAYIN.


Bu Yoruma Cevap Ver
caqtan06 | 05 Kasım 2014 Çarşamba 14:59
arpej ritim ??


Bu Yoruma Cevap Ver
efebektas | 12 Ocak 2014 Pazar 15:17
21 Ekim 2013 Pazartesi tarihinde NİKo* yazmıştı:
parça la kürdi makamında ama tabı si kürdi yazmışsın. tabı 2 ses alttan çalın arkadaşlar
pardon tab mi kürdi olarak yazılmış


Bu Yoruma Cevap Ver
NİKo* | 21 Ekim 2013 Pazartesi 19:31
parça la kürdi makamında ama tabı si kürdi yazmışsın. tabı 2 ses alttan çalın arkadaşlar


Bu Yoruma Cevap Ver
NİKo* | 21 Ekim 2013 Pazartesi 19:30
ya beyler amatördende beterim bir arkadaş bana söyleyebilirmi bunun ritmi ne solosunda deniyorumda hiç benzetemedim verilen solo şarkının hangi bölümü saolun..


Bu Yoruma Cevap Ver
MrGreaTFuL | 04 Mart 2013 Pazartesi 16:35
ritim nasıl la


Bu Yoruma Cevap Ver
tariksekeer | 25 Kasım 2012 Pazar 19:18
arkadaşlar Bb akoru sorunu olanlar için
kapo 5
dm=am
Bb=F
C=G
Am=Em
Gm=C
kullanabilirler
ben egitim filan almadım akorları kendime göre uyarladım buda aynı akorların 5.perdeden transpozesi.


Bu Yoruma Cevap Ver
beydama | 08 Haziran 2012 Cuma 22:10
08 Nisan 2012 Pazar tarihinde yabani3535 yazmıştı:
07 Ocak 2012 Cumartesi tarihinde Esesligitarist yazmıştı:
02 Ekim 2011 Pazar tarihinde mcma yazmıştı:
sozlerde bir yalnis var

ölü ask diyarlarina beni sen attin ya
C Am C Am Bb - Am
icim paramparca viraneyim yalan olur aa ah
Dm Bb C Am
sesin yanki olur bogar her adim ya
C Am C Am Bb - Am
icim paramparca viraneyim duman olur aa ah
Yaw siz bu şarkıyı dinlemediniz mi ne Yalan olur u duman oluru ?
biraz zor anladım ilk tabı basınca anlaşılıyor bence çok iyi.
pardon yalnış oldu tabı için soylemek ıstedım

---------------------------------------------------------------------------------------------------------
----3- 4-3-1-----1----3-1------------------------------------------------------------------------------
----------------3--------------3-2-----5------7-5-3-2----3-2-0--------------------------------------------
---------------------------------------------------------------------3--- 5--3--1---0----------------
---------------------------------------------------------------------------------------------------------
---------------------------------------------------------------------------------------------------------


Bu Yoruma Cevap Ver
yabani3535 | 08 Nisan 2012 Pazar 18:05
07 Ocak 2012 Cumartesi tarihinde Esesligitarist yazmıştı:
02 Ekim 2011 Pazar tarihinde mcma yazmıştı:
sozlerde bir yalnis var

ölü ask diyarlarina beni sen attin ya
C Am C Am Bb - Am
icim paramparca viraneyim yalan olur aa ah
Dm Bb C Am
sesin yanki olur bogar her adim ya
C Am C Am Bb - Am
icim paramparca viraneyim duman olur aa ah
Yaw siz bu şarkıyı dinlemediniz mi ne Yalan olur u duman oluru ?
biraz zor anladım ilk tabı basınca anlaşılıyor bence çok iyi.


Bu Yoruma Cevap Ver
yabani3535 | 08 Nisan 2012 Pazar 18:04
11 Mart 2012 Pazar tarihinde westdenizli yazmıştı:
27 Aralık 2011 Salı tarihinde huysuzadam yazmıştı:

---------------------------------------------------------------------------------------------------------
----3- 4-3-1-----1----3-1------------------------------------------------------------------------------
----------------3--------------3-2-----5------7-5-3-2----3-2-0--------------------------------------------
---------------------------------------------------------------------3--- 5--3--1---0----------------
---------------------------------------------------------------------------------------------------------
---------------------------------------------------------------------------------------------------------
Helal Olsun Kardeş Yukarıdakinden %100 Daha İyi
Dm Bb C Am
ölü ask diyarlarina beni sen attin ya

C Am C Am Bb Am
icim paramparca viraneyim divaneyim aa ah

Dm Bb C Am
sesin yanki olur bogar her adim ya
C Am C Am Bb Am
icim paramparca viraneyim divaneyim aa ah

Dm Am C
haykirsam ellerimi
Bb C Dm
acsam yalniz sana aah
Dm Am C
aglasam cocuk gibi
Bb C Dm
eskileri anlatsam

Dm Gm C Bb
dervis gibi abdal gibi tapar gibi
Am Bb Am
paramparca aa ah

Dm Am C
haykirsam ellerimi

a ayay


Bu Yoruma Cevap Ver
huysuzadam | 11 Mart 2012 Pazar 15:25
Dm Am C
haykirsam ellerimi
C Bb C Dm
acsam yalniz sana aah
Dm Am C
aglasam cocuk gibi
C Bb C Dm
eskileri anlatsam

bu kısma arpej tam oturmuyor bi bilgilendirebilcek varmı


Bu Yoruma Cevap Ver
Mertoo | 16 Şubat 2012 Perşembe 21:33
viraneyim yalan olur
viraneyim duman olur olucak
akorlar tam oturmus elıne saglık


Bu Yoruma Cevap Ver
GitarYoLunda | 02 Şubat 2012 Perşembe 21:54
27 Aralık 2011 Salı tarihinde huysuzadam yazmıştı:

---------------------------------------------------------------------------------------------------------
----3- 4-3-1-----1----3-1------------------------------------------------------------------------------
----------------3--------------3-2-----5------7-5-3-2----3-2-0--------------------------------------------
---------------------------------------------------------------------3--- 5--3--1---0----------------
---------------------------------------------------------------------------------------------------------
---------------------------------------------------------------------------------------------------------
Çok iyi kardeşim


Bu Yoruma Cevap Ver
Rodrigoo | 27 Ocak 2012 Cuma 15:51

---------------------------------------------------------------------------------------------------------
----3- 4-3-1-----1----3-1------------------------------------------------------------------------------
----------------3--------------3-2-----5------7-5-3-2----3-2-0--------------------------------------------
---------------------------------------------------------------------3--- 5--3--1---0----------------
---------------------------------------------------------------------------------------------------------
---------------------------------------------------------------------------------------------------------


Bu Yoruma Cevap Ver
huysuzadam | 27 Aralık 2011 Salı 21:53
02 Ekim 2011 Pazar tarihinde mcma yazmıştı:
sozlerde bir yalnis var

ölü ask diyarlarina beni sen attin ya
C Am C Am Bb - Am
icim paramparca viraneyim yalan olur aa ah
Dm Bb C Am
sesin yanki olur bogar her adim ya
C Am C Am Bb - Am
icim paramparca viraneyim duman olur aa ah
evet dostum bende oraya takılmıştım:) Birde yalar da olacak


ölü ask diyarlarina beni sen attin da
C Am C Am Bb - Am
icim paramparca viraneyim yalan olur aa ah
Dm Bb C Am
sesin yanki olur bogar her adim da
C Am C Am Bb - Am
icim paramparca viraneyim duman olur aa ah



Bu Yoruma Cevap Ver
freedom593 | 14 Aralık 2011 Çarşamba 20:29
BEYLER VERSİYON 3'E BAKIN BİRE BİR AYNI SORUNSUZ..


Bu Yoruma Cevap Ver
quitar_ibrahim | 14 Aralık 2011 Çarşamba 15:25
ful bareli süper oluyor:)


Bu Yoruma Cevap Ver
beydama | 07 Aralık 2011 Çarşamba 21:09
26 Kasım 2011 Cumartesi tarihinde faruk84 yazmıştı:
Arpej ?
arkdslar ben akorları kendm buldm arpejle çalıorm arpej olark pimiaimi yapıorm akorları Bm Fm G EM A Fm seklnde gidio ama nakarat değisio...


Bu Yoruma Cevap Ver
sssurock | 30 Kasım 2011 Çarşamba 17:19
Arpej ?


Bu Yoruma Cevap Ver
faruk84 | 26 Kasım 2011 Cumartesi 16:37
beyler yalan oldum duman oldum diyo müziği kulaklıkla son ses dinleyin hoparlörla değil


Bu Yoruma Cevap Ver
sigma_guitar | 28 Ekim 2011 Cuma 02:49
12 Eylül 2011 Pazartesi tarihinde EJDER_ESK yazmıştı:

viraneyim yalan olur.. ah ah

viraneyim duman olur..aa ah

Sözler böyle değilmi ?
viraneyim yalan oldum.ikinci kısmında da viraneyim divaneyim.akorlarda da fazlalık var gibi ama yine de güzel emeğe saygı göstermek lazım.


Bu Yoruma Cevap Ver
viva la viva | 12 Eylül 2011 Pazartesi 18:32

viraneyim yalan olur.. ah ah

viraneyim duman olur..aa ah

Sözler böyle değilmi ?


Bu Yoruma Cevap Ver
EJDER_ESK | 12 Eylül 2011 Pazartesi 15:13
apdal değil abdal


Bu Yoruma Cevap Ver
peteozgun | 12 Eylül 2011 Pazartesi 11:30
bence 10/9 ;) eline sağlık


Bu Yoruma Cevap Ver
en_alttaki | 05 Eylül 2011 Pazartesi 19:30
ben hiç beğenmedm kardeş


Bu Yoruma Cevap Ver
"müFtü" | 25 Ağustos 2011 Perşembe 22:52
solo kısmında biraz sıkıntı var sanki . akor kısmı gayet güzel olmuş eline sağlık.


Bu Yoruma Cevap Ver
CacaStyLe | 25 Ağustos 2011 Perşembe 16:36
08 Ağustos 2011 Pazartesi tarihinde kartal- yazmıştı:
ritim nedir arkadaşlar? veya arpeji varsa da?
ilk dörtlükte Am Bb - Am :AAY diğer kısımlar 4/4 lük
ikinci dörtlük de ilk akorlar 4/4 sonrakiler aay
üçüncü dörtlükte Bb - Am:AAY diğer kısımlar :AAYAY..
2 aydır gitar çalıyorm bu kadar yardımcı olabildim :)


Bu Yoruma Cevap Ver
Bir Şovalye | 21 Ağustos 2011 Pazar 02:45
ritim nedir arkadaşlar? veya arpeji varsa da?


Bu Yoruma Cevap Ver
kartal- | 08 Ağustos 2011 Pazartesi 18:31
bence bütün akorlar tam oturmuş eklencek veya çıkartılacak bir şey yok
solo suda güzel eksik yok eline sağlık dostum :))


Bu Yoruma Cevap Ver
PlayNow | 17 Haziran 2011 Cuma 23:14
Dm Am C
haykirsam ellerimi
C Bb C Dm
acsam yalniz sana aah
Dm Am C
aglasam cocuk gibi
C Bb C Dm
eskileri anlatsam

Bu kısımda birşeyler olmamış ya da ben çıkartamıyorum. sizce?


Bu Yoruma Cevap Ver
Mkaya71 | 11 Haziran 2011 Cumartesi 20:20
07 Haziran 2011 Salı tarihinde Guitar's Mehmet yazmıştı:
çok başarılı , tüm akorlara bareli basarsanız daha net bir ses alabilirsiniz .. emeğine sağlık
teşekkürler


Bu Yoruma Cevap Ver
Schw | 09 Haziran 2011 Perşembe 12:41
çok başarılı , tüm akorlara bareli basarsanız daha net bir ses alabilirsiniz .. emeğine sağlık


Bu Yoruma Cevap Ver
Guitar's Mehmet | 07 Haziran 2011 Salı 15:34


Siz de Görüş Bildirin

Yorum yazma alanı Akor Merkezi üyelerine özel bir bölümdür. (Giriş Yap / Üye Ol / Şifremi Hatırlat)


PAYLAŞ

Reklam



Anket
czmbR soruyor:
Gitar Haricinde En Çok Hangi Enstrümanı Çalmayı İsterdiniz?













Sonuçlar | Sonuçlar & Yorumlar
Yeni Anket | Anketler




Reklam


Radyo Dinle
AkorMerkezi.com © 2014
İletişim - Gizlilik Politikası - Kullanım Koşulları - Kurallar - Son Yorumlar - Rastgele

GitarAkor.com kolonisidir. Derleme 0,06 saniye.