Akor Tab Söz Çeviri Anasayfası
Akor|Tab|Söz|Nota Arşivi
Gitar Akorları | Tab,Söz ve Nota Anasayfası | En Yeni Şarkılar | En Popüler Şarkılar | Akor Cetveli

Bilgiler
 
Seslendiren ve Şarkı: Haluk Levent - Deniz Üstü Köpürür
Biçim: TAB - HİÇBİRİ
Tarih: 05 Ocak 2011 Çarşamba
Gönderen: 2utku2
Toplam Okuyan: 6.640 kişi
Bu Ay Okuyan: 60 kişi
Bu Hafta Okuyan: 11 kişi
 
Beğendiniz mi? Deniz Üstü Köpürür Tab sayfasını Şimdi paylaşın:

Haluk Levent - Deniz Üstü Köpürür - Tab


Puanlama:
 (5 kişi)

Deniz Üstü Köpürür şarkısının diğer versiyonlarına bakın >>

Metin boyutu: ( + Büyült ) ( - Küçült)   
Deniz üstü Köpürür...

E------------------0-------3-0----------------------------------|
B------------1--3------3--------1---3-3--1-0-------0-0----------|
G-0--2--2--0----------------------------------2--2-----2--------|
D---------------------------------------------------------------|
A---------------------------------------------------------------|
E---------------------------------------------------------------|
Kayığa da binsem götürür...
E-0---1-1---0--0------------------------------------------------|
B---------------3-1-3-1--0--------------------------------------|
G----------------------------2--0--2--2-2--2--------------------|
D---------------------------------------------------------------|
A---------------------------------------------------------------|
E---------------------------------------------------------------|

Deniz üstü köpürür..
(Hey canım rinna nay rinna rinna nay)
Kayığa da binsem götürür
(Hey canım hey).

Benim de şu dünyaya gelişim.
(Hey canım rinna nay rinna rinna nay)
Bir güzelin hatrına
(Hey canım hey).

Karıncanın katarı
(Hey canım rinna nay rinna rinna nay).
Yüreğimde yatarı
(Hey canım hey).
Benimde şu dünyaya gelişim 
(Hey canım hey).


İlk tabım arkadaşlar ama şarkı doğrudur.
Dinledikten sonra çalabilirsiniz rahat bir biçimde.
Yeni başlayanlara tavsiye ederim.

Deniz Üstü Köpürür Tab, AkorMerkezi.com'da yayınlanmıştır.
http://www.akormerkezi.com


İçerik Kısa Linki:


Beğendiniz mi? Deniz Üstü Köpürür Tab sayfasını Şimdi paylaşın:


Deniz Üstü Köpürür Tab için Komoçotoko'dan Gelenler
Aramalar: hey canım rinnanAy akır, deniz üstü köpürür gitar nota, hey canım rinnanay, deniz üstü küpürür, rinnanay haluk levent akor, haluk levent deniz üstü köpürür sözleri, deniz üsü köpürür, deniz üstü köpürür notalar, deniz üstü köpürür gitar akor, fenizustukopururarpej
Haluk Levent - Deniz Üstü Köpürür için Kullanıcı Görüşleri

arkadaşlar ben tabı yazan kişiyim ilk bölümde sondaki bölümde G de 2 yerine 0 olucak :)

E------------------0-------3-0----------------------------------|
B------------1--3------3--------1---3-3--1-0-------0-0----------|
G-0--2--2--0----------------------------------2--2-----0--------|
D---------------------------------------------------------------|
A---------------------------------------------------------------|
E---------------------------------------------------------------|


Bu Yoruma Cevap Ver
2utku2 | 28 Aralık 2011 Çarşamba 17:28


Siz de Görüş Bildirin

Yorum yazma alanı Akor Merkezi üyelerine özel bir bölümdür. (Giriş Yap / Üye Ol / Şifremi Hatırlat)


PAYLAŞ

Reklam



Anket
habibatici soruyor:
Sizce en iyi gitarları hangi marka üretir?













Sonuçlar | Sonuçlar & Yorumlar
Yeni Anket | Anketler




Reklam


Radyo Dinle
AkorMerkezi.com © 2014
İletişim - Gizlilik Politikası - Kullanım Koşulları - Kurallar - Son Yorumlar - Rastgele

GitarAkor.com kolonisidir. Derleme 0,05 saniye.