Akor Tab Söz Çeviri Anasayfası
Akor|Tab|Söz|Nota Arşivi
Gitar Akorları | Tab,Söz ve Nota Anasayfası | En Yeni Şarkılar | En Popüler Şarkılar | Akor Cetveli

Bilgiler
 
Seslendiren ve Şarkı: Haluk Levent - Elfida
Biçim: TAB -
Tarih: 07 Şubat 2007 Çarşamba
Gönderen: serbay662
Toplam Okuyan: 27.615 kişi
Bu Ay Okuyan: 56 kişi
Bu Hafta Okuyan: 56 kişi
 
Beğendiniz mi? Elfida Tab sayfasını Şimdi paylaşın:

Haluk Levent - Elfida - Tab


Puanlama:
 (2 kişi)

Elfida şarkısının diğer versiyonlarına bakın >>

Metin boyutu: ( + Büyült ) ( - Küçült)   
Haluk Levent--Elfida 

İntro (solo)  
   
E---17-17-17p-16-16-16-16p-14-14-14-14-14-14-14------
B---14-14-14--14-14-14-14--14-17-17-17-14-14-14------
G----------------------------14-14-14-14-------------
D----------------------------------------------------
A----------------------------------------------------
E----------------------------------------------------

 
--14-14-14--14----------------------------------------
--15-15-15p-14-14-14-14s-12-12-12-12\-10-10-10s-9s-10-
---------------14-14-14-------------------------------
------------------------------------------------------
------------------------------------------------------
------------------------------------------------------


--------------------------
--10----------------------
-----11~------------------
--------------------------
--------------------------
--------------------------


      
    
---17-17-17p-16-16-16-16p-14-14-14-14-14-14-14------
---14-14-14--14-14-14-14--14-17-17-17-14-14-14------
------------------------------14-14-14-14-----------
----------------------------------------------------
----------------------------------------------------
----------------------------------------------------


--14-14-14--14---------------------------------------- 
--15-15-15p-14-14-14-14s-12-12-12-12\-10-10-10s-9s-10-
---------------14-14-14------------------------------- 
------------------------------------------------------
------------------------------------------------------
------------------------------------------------------


--------------------------
--10----------------------
-----11~------------------
--------------------------
--------------------------
--------------------------


Bitiş (Solo)


-------------------------------
---------------2g9h----10------
------------6--------------9---
--2g4---7----------------------
-------------------------------
-------------------------------

 
-------------------------|---------5--7g10---9---------
-------------------------|-----7-----------------10--7-
--L----11--6~------L--7--|--L--------------------------
-------------------------|-----------------------------
-------------------------|-----------------------------
-------------------------|-----------------------------


----------------------------|--12~--L------------16~----L---L----------21--
--L--L~------------------14-|-----------------17--------------------19-----
----------------------14----|--------------18--------------------19--------
-------------------16-------|-----------16--------------------19-----------
----------------------------|----------------------------------------------
----------------------------|----------------------------------------------


---L----21br----------------------------
--------------22-21br---L---L~---L~--L--
----------------------------------------
----------------------------------------
----------------------------------------
----------------------------------------

 
-----24-22-21----22-21-19----21-19-17----19-17-16-
--22----------22----------21----------19----------
--------------------------------------------------
--------------------------------------------------
--------------------------------------------------
--------------------------------------------------


arkadaşlar bu kısımla parmaklarıyla vurduğu kısım 


--15p-10p-9------------------------------------------------------------
------------15p-12p-10-15p-10p-9---------------------------------------
---------------------------------15p-11p-9-----------------------------
-------------------------------------------15p-12p-11-15p-11p-9--------
----------------------------------------------------------------16h--L-
-----------------------------------------------------------------------


---------------------------
---------------------------
---------------------------
---------------------------
--11h-12-9~----------------
---------------------------


arkadaşlar inşallah beğenirsiniz...... 


-------------------------NotSleeP------------------------------
NotSleeP_solo_gitar@hotmail.com
Elfida Tab, AkorMerkezi.com'da yayınlanmıştır.
http://www.akormerkezi.com


İçerik Kısa Linki:


Beğendiniz mi? Elfida Tab sayfasını Şimdi paylaşın:


Elfida şarkısı için amatör kayıtları dinleyin: (Siz de Ekleyin)

Elfida Tab için Komoçotoko'dan Gelenler
Aramalar: elfida tab gitar, haluk levent elfinda tab, elfis tab, haluk levent elfida bas tab, haluk levent elfida gitar akor, haluk levent elvida tab, elfida sola, elfida gitar akorları, ELFİDA haluk levent, haluk l elfida
Haluk Levent - Elfida için Kullanıcı Görüşleri

18 Şubat 2012 Cumartesi tarihinde furkansarıaydın yazmıştı:
gitarda 20 tane perde var zaten hacı sen naptın :D
Solo gitarları 24 perdeden oluşur bunu da bilmiyorsan bu sitede işin ne git teknik bilgi araştır.


Bu Yoruma Cevap Ver
TRikimaru | 13 Haziran 2012 Çarşamba 22:16
gitarda 20 tane perde var zaten hacı sen naptın :D


Bu Yoruma Cevap Ver
furkansarıaydın | 18 Şubat 2012 Cumartesi 19:35
süpermiş.. eline sağlık


Bu Yoruma Cevap Ver
gökalp981 | 25 Aralık 2010 Cumartesi 16:26
arkadaşlar biri bunun akustik solosunu çıkarabilirmi


Bu Yoruma Cevap Ver
gokhanakgul | 13 Temmuz 2009 Pazartesi 16:36
Birazdan 1 saattir uğraşdığım tabı atacam
Bol müzikli günler
f.totti


Bu Yoruma Cevap Ver
francesko_totti | 24 Mart 2009 Salı 02:48
bayagı iyi olmuş ellerine saglık tabi rakamların yanindaki harflerin ne anlama geldiğini altına yazarsanız yeni ögrenen ark. için daha. içindeki rock ateşini ortaya çıkar.


Bu Yoruma Cevap Ver
metallica_442 | 30 Kasım 2008 Pazar 12:12
ya ben yeniyimde bu tap nasıl okunacak biraz zormuş diğer klasikleri okumak daha kolay bunda anlamadığım yerler var biraz anlatan çok sevaba geçer


Bu Yoruma Cevap Ver
logos82 | 20 Ağustos 2008 Çarşamba 00:05
gitar deyimlerinde türkçeye yer verirsek daha anlaşılır olur kanısındayım. bu konuda bir çok arkadaşımızın çalışması var. dilimizden utanmayalım. ayrıca ingilizce veya latince deyimler kullanmak bizim daha iyi gitar çalmamızı sağlayamaz.


Bu Yoruma Cevap Ver
cerebruma | 16 Haziran 2008 Pazartesi 09:33
evet parmaklarla vurmaya tapping deniyor:D


Bu Yoruma Cevap Ver
cagatay21 | 29 Eylül 2007 Cumartesi 17:49
g tam olarak neyi ifade ediyor. süslemek ama nasıl süslemek biraz açıklayabilrmisin


Bu Yoruma Cevap Ver
faskerhat | 09 Ağustos 2007 Perşembe 00:45
beğenmek ne kelime bayıldık çok iyi ellerine sağlık


Bu Yoruma Cevap Ver
korayyyy87 | 06 Ağustos 2007 Pazartesi 21:19
ellerine sağlık...


Bu Yoruma Cevap Ver
priz-ma | 30 Haziran 2007 Cumartesi 22:55
kardeşim eline sağlık teşekkürler


Bu Yoruma Cevap Ver
Çağrı67 | 16 Mayıs 2007 Çarşamba 00:46
güzel olmuş saol...


Bu Yoruma Cevap Ver
Jack_Davinson | 28 Nisan 2007 Cumartesi 01:47
GÜZEL SÜPERRRRRRR......


Bu Yoruma Cevap Ver
VEDO_666 | 25 Şubat 2007 Pazar 13:21
arkadaşlar ordaki L ve G
L - tied note (bagli)
g - grace note (süsle)


Bu Yoruma Cevap Ver
serbay662 | 21 Şubat 2007 Çarşamba 00:58
çok teşekkür ederim kardeşim ellerine sağlık


Bu Yoruma Cevap Ver
dertli_gitar | 19 Şubat 2007 Pazartesi 23:41
parmaklarıyla vurmaya tapping deniyor :D


Bu Yoruma Cevap Ver
DarkSouL16 | 09 Şubat 2007 Cuma 22:17
helal ağa süper olmuş


Bu Yoruma Cevap Ver
ekoksoy | 09 Şubat 2007 Cuma 17:31


Siz de Görüş Bildirin

Yorum yazma alanı Akor Merkezi üyelerine özel bir bölümdür. (Giriş Yap / Üye Ol / Şifremi Hatırlat)


PAYLAŞ

Reklam



Anket
schweppes soruyor:
Black metal diyince aklınıza ne geliyor¿










Sonuçlar | Sonuçlar & Yorumlar
Yeni Anket | Anketler




Reklam


Radyo Dinle
AkorMerkezi.com © 2014
İletişim - Gizlilik Politikası - Kullanım Koşulları - Kurallar - Son Yorumlar - Rastgele

GitarAkor.com kolonisidir. Derleme 0,05 saniye.