Akor Tab Söz Çeviri Anasayfası
Akor|Tab|Söz|Nota Arşivi
Gitar Akorları | Tab,Söz ve Nota Anasayfası | En Yeni Şarkılar | En Popüler Şarkılar | Akor Cetveli

Bilgiler
 
Seslendiren ve Şarkı: Haluk Levent - Gülendam
Biçim: Bass Tab, Bass Gitar Tab -
Tarih: 05 Mart 2005 Cumartesi
Gönderen: wolwera
Toplam Okuyan: 4.256 kişi
Bu Ay Okuyan: 72 kişi
Bu Hafta Okuyan: 9 kişi
 
Beğendiniz mi? Gülendam Bass Tab sayfasını Şimdi paylaşın:

Haluk Levent - Gülendam - Bass Tab


Puanlama:
 (1 kişi)

Gülendam şarkısının diğer versiyonlarına bakın >>

Metin boyutu: ( + Büyült ) ( - Küçült)   
G|-------------------|-9~~~-|
D|------8-7----------|------|
A|-7-10-----10-7-5-7-|------|
E|-------------------|------|
  \______4 DEFA_____/

Gozlerinden otesini...
G|------------|----------------------|
D|------------|----------------------|
A|-7-10-7-8-7-|-5-8-5-6-5-7-10-7-8-7-|
E|------------|----------------------|
  \__2 DEFA__/
\______________2 DEFA_______________/

Gumusyaka koprusunu...
G|---------------------------------------------------------
D|---------------------------------------------------------
A|-3-3-3-3-3-3-3-------------------------------------------
E|---------------3-3-3-3-3-3-3-1-1-1-1-1-1-1-3-3-3-3-3-3-3-
 \___________________________2 DEFA_______________________

---------------------------------------------------------|
---------------------------------------------------------|
---------------------------------------------------------|
5-5-5-5-5-5-5-3-3-3-3-3-3-3-1-1-1-1-1-1-1-0-0-0-0-0-0-0--|
________________________________________________________/

Ahh Gulendam...
G|-5---9---5-----------------------|
D|-5-5-9-9-5-5-5---7---5---3---2-2-|
A|-3---7---3---5-5-7-7-5-5-3-3-0---|
E|-------------3---5---3---1---0---|

G|-------------------|-9~~~-|
D|------8-7----------|------|
A|-7-10-----10-7-5-7-|------|
E|-------------------|------|
  \______4 DEFA_____/

Saclarindan otesini...
G|------------|----------------------|
D|------------|----------------------|
A|-7-10-7-8-7-|-5-8-5-6-5-7-10-7-8-7-|
E|------------|----------------------|
  \__2 DEFA__/
\______________2 DEFA_______________/

Bitiste
G|--------------|
D|------7-8-7~~-|
A|-7-10---------|
E|--------------|

Gülendam Bass Tab, AkorMerkezi.com'da yayınlanmıştır.
http://www.akormerkezi.com


İçerik Kısa Linki:


Beğendiniz mi? Gülendam Bass Tab sayfasını Şimdi paylaşın:


Gülendam Bass Tab için Komoçotoko'dan Gelenler
Aramalar: haluk levent gümüşyaka köprüsünü akor, haluk levent gumus ata koprusu sarkısı, gümüşyaka köprüsü haluk levent dinle, Gülendam (Haluk Levent), gulendam haluk levent tab, haluk levent bas gitarist, haluk levent bass, haluk levent gülendam solo tab, gül endam tab, gülendam bas tabları
Haluk Levent - Gülendam için Kullanıcı Görüşleri

teşekkürler


Bu Yoruma Cevap Ver
boy_yekta | 22 Mayıs 2007 Salı 17:31
gusel olmus elıne saglık


Bu Yoruma Cevap Ver
nefret87 | 21 Kasım 2006 Salı 23:03
affrm iyi olmus


Bu Yoruma Cevap Ver
GoKtUgHaN | 01 Eylül 2006 Cuma 11:46
süper


Bu Yoruma Cevap Ver
mossbackt | 26 Ekim 2005 Çarşamba 15:50


Siz de Görüş Bildirin

Yorum yazma alanı Akor Merkezi üyelerine özel bir bölümdür. (Giriş Yap / Üye Ol / Şifremi Hatırlat)


PAYLAŞ

Reklam



Anket
Metalmilitia. soruyor:
En İyi Rock Savaş Şarkısı?













Sonuçlar | Sonuçlar & Yorumlar
Yeni Anket | Anketler




Reklam


Radyo Dinle
AkorMerkezi.com © 2014
İletişim - Gizlilik Politikası - Kullanım Koşulları - Kurallar - Son Yorumlar - Rastgele

GitarAkor.com kolonisidir. Derleme 0,03 saniye.