Akor Tab Söz Çeviri Anasayfası
Akor|Tab|Söz|Nota Arşivi
Gitar Akorları | Tab,Söz ve Nota Anasayfası | En Yeni Şarkılar | En Popüler Şarkılar | Akor Cetveli

Bilgiler
 
Seslendiren ve Şarkı: Iron Maiden - Fear Of The Dark
Biçim: TAB - FULL
Tarih: 05 Kasım 2010 Cuma
Gönderen: metaliRock
Toplam Okuyan: 2.351 kişi
Bu Ay Okuyan: 51 kişi
Bu Hafta Okuyan: 11 kişi
 
Beğendiniz mi? Fear Of The Dark Tab sayfasını Şimdi paylaşın:

Iron Maiden - Fear Of The Dark - Tab

  (versiyon 2)
Puanlama:
 (8 kişi)

Fear Of The Dark şarkısının diğer versiyonlarına bakın >>

Metin boyutu: ( + Büyült ) ( - Küçült)   
1. Gitar
 
E|-----------------------------------|------------------------------------| 
B|-----------------------------------|------------------------------------| 
G|-7-7-----7-7-9-9-10-10-9-9-7-7-9-7-|5-5-----5-5-7-7--9-9--7-7-5-5--9-5--| 
D|-----7-7---------------------------|----5-5-----------------------------| 
A|-----------------------------------|------------------------------------| 
E|-----------------------------------|------------------------------------| 
 
E|-----------------------------------|------------------------------------| 
B|-----------------------------------|------------------------------------| 
G|-----------------------------------|------------------------------------| 
D|-7-7-----7-7-9-9-10-10-9-9-7-7-9-7-|-5-5-----5-5-7-7-9-9--7-7-5-5-9-5---| 
A|-----7-7---------------------------|-----5-5----------------------------| 
E|-----------------------------------|------------------------------------| 
 
E|-----------------------------------|------------------------------------| 
B|-----------------------------------|------------------------------------| 
G|-----------------------------------|------------------------------------| 
D|-7-7-----7-7-9-9-10-10-9-9-7-7-9-7-|-3-3-----3-3-5-5--7-7--5-5-3-3--7-3~| 
A|-----7-7---------------------------| 
E|-----------------------------------|------------------------------------| 
 
2. Gitar
 
E|-----------------------------------|------------------------------------| 
B|-----------------------------------|------------------------------------| 
G|-----------------------------------|------------------------------------| 
D|-----------------------------------|-----------------2-2----------2-----| 
A|-5-5-----5-5-7-7-8-8-7-7-5-5-7-5---|3-3-----3-3-5-5-------5-5-3-3---3---| 
E|-----5-5---------------------------|----3-3-----------------------------| 
 
E|-----------------------------------|------------------------------------| 
B|-----------------------------------|------------------------------------| 
G|-----------------------------------|------------------------------------| 
D|-----------------------------------|-5-5-----5-5-7-7-9-9--7-7-5-5-9-5---| 
A|-0-0-----0-0-2-2-3-3-2-2-0-0-2-0---|-----5-5----------------------------| 
E|-----0-0---------------------------|------------------------------------| 
 
E|-----------------------------------|------------------------------------| 
B|-----------------------------------|------------------------------------| 
D|-----------------------------------|------------------------------------| 
A|-----------------------------------|-3-3-----3-3-5-5--7-7--5-5-3-3--7-3~| 
A|-0-0-----0-0-2-2-3-3-2-2-0-0-2-0---|-----3-3----------------------------| 
E|-----0-0---------------------------|------------------------------------| 
                                                              

                        
E|------------------------------------------------| 
B|------5-6-8-6-5------------6--------5-6-8-6-5---| 
G|---7-----------5--5----5-5---7---7------------5-| 
D|-7---------------5-5-8---------7----------------| 
A|------------------------------------------------| 
E|------------------------------------------------| 
 
Akustik 
                                                                      
   D5       Bb5      D5       Bb5       D5      Bb5     D5 
E|------------------------------------|---------------------------------| 
B|------------------------------------|---------------------------------| 
G|------------------------------------|---------------------------------| 
D|-7-7-7-7--3-3-3-3--5-5-5-5--3-3-5-5-|-7-7-7-7-3-3-3-3-5-5-5-5-5-5-5-5-| 
A|5-5-5-5--1-1-1-1--3-3-3-3--1-1-3-3--|5-5-5-5-1-1-1-1-3-3-3-3-3-3-3-3--| 
E|------------------------------------|---------------------------------|  
 
E|--------------------------------| 
B|--------------------------------| 
G|--------------------------------| 
D|-7-7-7-7-3-3-3-3-5-5-5-5-3-3-5-5| 
A|5-5-5-5-1-1-1-1-3-3-3-3-1-1-3-3-| 
E|--------------------------------| 
 I am a man who walks alone... 
 
E|----------------------------------| 
B|----------------------------------| 
G|----------------------------------| 
D|--7-7-7-7-3-3-3-3-5-5-5-5-3-3-5-5-| 
A|-5-5-5-5-1-1-1-1-3-3-3-3-1-1-3-3--| 
E|----------------------------------| 
      at night or strolling... 
 
E|----------------------------------| 
B|----------------------------------| 
G|--------------------------5-5-7-7-| 
D|-7-7-7-7-3-3-3-3-5-5-5-5-3-3-5-5--| 
A|5-5-5-5-1-1-1-1-3-3-3-3-----------| 
E|----------------------------------| 
  When the lights...       ...feel a litle strange 
 
E|---------------------------------| 
B|---------------------------------| 
G|---------------------------------| 
D|--7-7-7-7-3-3-3-3-5-5-5-5-5-5-5-5| 
A|-5-5-5-5-1-1-1-1-3-3-3-3-3-3-3-3-| 
E|---------------------------------| 
               ...when it's dark 
 
E|--------------------------------------------------| 
B|--------------------------------------------------| 
G|-------------------------------------------5-5-7-7| 
D|--3-3-3-3-5-5-5-5-7-7-7-7-5-5-5-5-3-3-3-3-3-3-5-5-| 
A|-1-1-1-1-3-3-3-3-5-5-5-5-3-3-3-3-1-1-1-1----------| 
E|--------------------------------------------------| 
   Fear of the dark...                    ...that something's always near 
 
E|--------------------------------------------------| 
B|--------------------------------------------------| 
G|-------------------------------------------5-5-7-7| 
D|--3-3-3-3-5-5-5-5-7-7-7-7-5-5-5-5-3-3-3-3-3-3-5-5-| 
A|-1-1-1-1-3-3-3-3-5-5-5-5-3-3-3-3-1-1-1-1----------| 
E|--------------------------------------------------| 
   Fear of the dark...                    ...that someone's always there. 
 

  <--------3 KERE TEKRAR---------> 
E|---------------------------------|----------------------------| 
B|---------------------------------|----------------------------| 
G|---------------------------------|----------------------------| 
D|-----7-7-5-5-7-7-----7-7-5-5-7-7-|-----------------5-5--------| 
A|-5-5-------------5-5-------------|-----5-5-7-7-8-8-----8-8-7--| 
E|---------------------------------|-5-5------------------------| 
 
2
 
D5                                  Bb5 
Have you run your fingers down the ____ wall 
 
                                  C5 
And have you felt your neck skin crawl 
 
                               D5  
When you're searching for the ____ light? 
 
                                        Bb5 
Sometimes when you're scared to take a look 
 
                      C5 
At the corner of the room 
 
                                       D5 
You've sensed that something's watching you 
 
 
NAKARAT
 
            Bb5    C5              D5    C5 
Fear of the dark ,____ Fear of the dark,____ 
 
         Bb5                F5          G5       D5 
I have a constant fear that something's always near 
 
            Bb5    C5              D5     C5 
Fear of the dark, ____ Fear of the dark, ____ 
 
         Bb5         F5        G5     D5 
I have a phobia that someone's always there 
 
 
3
 
                   Bb5    C5  
Have you ever been alone at night 
 
            D5      C5     D5  
Trought you heard footseps behind 
 
            Bb5                  C5 
And Turned around and no-one's _____ there? 
 
D5      Bb5              C5 
And you quicken up your pace 
 
          F5       G5  D5  
You findi hard to look again 
 
                 Bb5                     C5  
Because you're ____ sure there's someone there 
 
 
 
NAKARAT
 
 
            Bb5    C5              D5    C5 
Fear of the dark ,____ Fear of the dark,____ 
 
         Bb5                F5          G5        D5 
I have a constant fear that something's always near 
 
            Bb5    C5              D5     C5 
Fear of the dark, ____ Fear of the dark, ____ 
 
         Bb5         F5        G5     D5 
I have a phobia that someone's always there 

 
Solo 1 
 
E|---------------------------------------------| 
B|---------------------------------------------| 
G|-7--7-7-9-10-9~-10-9-7--7--------------------| 
D|--------------------------10-8--8-7-5-7b-7~--| 
A|---------------------------------------------| 
E|---------------------------------------------| 
 
E|---------------------------------------------| 
B|---------------------------------------------| 
G|-7--7-7-9-10-9~-10-9-7--7----------5-7~------| 
D|--------------------------10-8-7-5-----------| 
A|---------------------------------------------| 
E|---------------------------------------------| 
 
E|--------------------------------------------------------| 
B|----------5-6-8-6-5~-----5-6-8-6-5~--5------------------| 
G|---7~---7--------------7---------------7-5--------------| 
D|-7----7--------------7---------------------7h8-7--------| 
A|--------------------------------------------------------| 
E|--------------------------------------------------------| 
 
E|--------------------------------------------------------| 
B|----------5-6-8-6-5~-----5-6-8-6-5~--5--------10h11-10--| 
G|---7~---7--------------7---------------7-5--------------| 
D|-7----7--------------7---------------------7------------| 
A|--------------------------------------------------------| 
E|--------------------------------------------------------| 
 
--------------------------------------------------------------------------------------
 
Part 1
 
e|----------------------------------------------| 
B|-----14---------------------------------------| 
G|--12-13----12-14-12^10------10---10^0---------| 
D|------------------------12--------------------| 
A|---------------------------------------10^12--| 
E|----------------------------------------------| 
 
 
e|--------------------10-10-10------13--15------| 
B|--------------------10-10-10------------------| 
G|---10-----12-14-------------------------------| 
D|---10-----------------------------------------| 
A|----------------------------------------------| 
A|----------------------------------------------| 
 
 
e|-15---13^12-10----10--------------------------| 
B|---------------10----13-11^10-----10----------| 
G|-------------------------------12----12^10----| 
D|-------------------------------------------12-| 
A|----------------------------------------------| 
E|----------------------------------------------| 
 
 
e|----------------------------------------------| 
B|----------------------------------------------| 
G|--10----12-----10----10----10^2---------------| 
D|----------------------------------------------| 
A|----------------------------------------------| 
E|----------------------------------------------| 
 
 
e|-15-17----15-13^12-13-------------------------| 
B|----------------------13-----------13---------| 
G|--------------------------------12------12^10-| 
D|-----------------------------14---------------| 
A|--------------------------15------------------| 
E|----------------------------------------------| 
 
 
e|----------------------------------------------| 
B|----10----------------------------------------| 
G|-12-14---12-14--12^10-------10----------------| 
D|------------------------12--------------------| 
A|----------------------------------------------| 
E|----------------------------------------------| 
 
 
e|------13----------------------------------------------| 
B|------13----------------------------------------------| 
G|-(12)-14-(12)-14-12^10----10--------------------------| 
D|-----------------------12----12^10----10--------------| 
A|-----------------------------------12----12--11^10^8--| 
E|------------------------------------------------------| 
 
 
e|-----------------------------------------------------| 
B|-----------------------------------------------------| 
G|-----------------------------------------------------| 
D|-----------------------------------------------------| 
A|--10^8-----------------------------------------------| 
E|---------10----10-----10-----------------------0-----| 
 
 
 
Part 2
 
e|------19----17----16--17--16^14^16^14------15^14--------------------------| 
B|----------------------------------------17---------17^14^12----14^---------| 
G|------------------------------------------------------------16-------------| 
D|---------------------------------------------------------------------------| 
A|---------------------------------------------------------------------------| 
E|---------------------------------------------------------------------------| 
 
e|---------------------------------------------------------------------------| 
B|-^17^14----14^17^14----14-15^14----14-15^14----------------14^15-14-17-19--| 
G|--------16----------16----------16----------16^14^13-14^16-----------------| 
D|---------------------------------------------------------------------------| 
A|---------------------------------------------------------------------------| 
E|---------------------------------------------------------------------------| 
 
 
e|---------------(17)-15-17^14-----------------------------------------------| 
B|-(17)-15-17^14---------------17^14---15^14----14^17^14---14----------------| 
G|-----------------------------------0-------16----------16---16^14^16^14----| 
D|------------------------------------------------------------------------16-| 
A|---------------------------------------------------------------------------| 
E|---------------------------------------------------------------------------| 
 
 
e|------------------------------------------------------19-19-21-------------| 
B|---------------------------------------------------------------------------| 
G|--14-----------------------------14-16-18-16-14-14^6-----------------------| 
D|------16^14-16^14-----------14^16------------------------------------------| 
A|------------------16^16-16-------------------------------------------------| 
E|---------------------------------------------------------------------------| 
 
 
e|----21----21----20----17^16------------------------------------------------| 
B|-----------------------------17------------14^15^16------------------------| 
G|---------------------------------16^14^16----------------------------------| 
D|---------------------------------------------------------------------------| 
A|---------------------------------------------------------------------------| 
E|---------------------------------------------------------------------------| 
 
 
e|-14^17^16^14----14^16^14---------------------------------------------------| 
B|-------------17----------17^15^14--14^15^14--14^15^14----------------------| 
G|-----------------------------------------------------16^18--18^19^18^19^18-| 
D|---------------------------------------------------------------------------| 
A|---------------------------------------------------------------------------| 
E|---------------------------------------------------------------------------| 
 
 
e|---------------------------------------------------------------------------| 
B|--------------------------------------------------------------14--19-------| 
G|-19---18^19^18^16-18---16^18^16^14-16---14^16^14^13-14-----14--------------| 
D|--------------------------------------------------------16-----------------| 
A|---------------------------------------------------------------------------| 
E|---------------------------------------------------------------------------| 
 
 
e|--------------------------------------------------------------------------| 
B|---19---14^19^14-------------14-19-19-------------------------------------| 
G|------------------14------14----------------------------------------------| 
D|----------------------14--------------------------------------------------| 
A|--------------------------------------------------------------------------| 
E|--------------------------------------------------------------------------| 
 
Solo

E|--------------------------------------------------------------------------- 
B|-------10-6-8~-------10-6-8-6---------------------------------------------- 
G|-7-7-7---------7-7-7----------------10-7-9~-------10-7-9-5--------7-3-5---- 
D|------------------------------8-8-8---------8-8-8-----------5-5-5---------- 
A|--------------------------------------------------------------------------- 
E|--------------------------------------------------------------------------- 
 
E|--------------------------------------------------------------------------- 
B|--------------------------------------------------------------------------- 
G|-------10-7-9-------7----7-5---5-7---7-5---5------------------------------- 
D|-7-7-7--------10-7--7--7-----7-----7-----7--------------------------------- 
A|--------------------------------------------------------------------------- 
E|--------------------------------------------------------------------------- 
 
----------------------------------------------------------------------------- 
 
Solo 2
 
(3 kere) 
E|-------5-------------5-----------------------------------------------------| 
B|---------6-8-----------6-8-6---------6-------------6-----------------------| 
G|-7-7-7---------7-7-7-------------------7-9-----------7-9-5-----------------| 
D|-------------------------------8-8-8---------8-8-8-------------------------| 
A|---------------------------------------------------------------------------| 
E|---------------------------------------------------------------------------| 
 
E|----------------------------------------------------| 
B|--------------------6-------------------------------| 
G|-------7---5----------7-9-5---7---7-5---5-7---7-5---| 
D|-5-5-5---8----7-7-7---------7---7-----7-----7-------| 
A|----------------------------------------------------| 
E|----------------------------------------------------| 
 

D5                 Bb5               G5               Bb5                D5   
(Fear of The Dark, fear of the dark, fear of the dark,____fear of the dark...) 
 

D5               Bb5               C5  
Watching horrors films the night before 
 
           F5           G5      D5  
Deabting ______ witches and folklore 
 
            Bb5            C5 
The unknown troubles on your mind 
 
D5         Bb5            C5 
Maybe your mind is playng tricks 
 
               F5     G5       D5 
You Sense, and suddenly eyes ____ fix 
 
           Bb5            C5 
On Dancing shadows from behind 
 
 
NAKARAT
 
            Bb5    C5              D5    C5 
Fear of the dark ,____ Fear of the dark,____ 
 
         Bb5                F5          G5       D5 
I have a constant fear that something's always near 
 
            Bb5    C5              D5     C5 
Fear of the dark, ____ Fear of the dark, ____ 
 
         Bb5         F5        G5     D5 
I have a phobia that someone's always there 
 
 
            Bb5    C5              D5    C5 
Fear of the dark ,____ Fear of the dark,____ 
 
         Bb5                F5          G5       D5 
I have a constant fear that something's always near 
 
            Bb5    C5              D5     C5 
Fear of the dark, ____ Fear of the dark, ____ 
 
         Bb5         F5        G5     D5 
I have a phobia that someone's always there 
 
------------------------------------------- 
 
                   
E|------------------------------------------------| 
B|------5-6-8-6-5------------6--------5-6-8-6-5---| 
G|---7-----------5--5----5-5---7---7------------5-| 
D|-7---------------5-5-8---------7----------------| 
A|------------------------------------------------| 
E|------------------------------------------------| 
 
E|------------------------------------|---------------------------------| 
B|------------------------------------|---------------------------------| 
G|------------------------------------|---------------------------------| 
D|-7-7-7-7--3-3-3-3--5-5-5-5--3-3-5-5-|-7-7-7-7-3-3-3-3-5-5-5-5-5-5-5-5-| 
A|5-5-5-5--1-1-1-1--3-3-3-3--1-1-3-3--|5-5-5-5-1-1-1-1-3-3-3-3-3-3-3-3--| 
E|------------------------------------|---------------------------------| 
 
-------------------------------------------- 
SON 
E|---------------------------------------| 
B|---------------------------------------| 
G|--------------------------5-5-7-7------| 
D|-7-7-7-7-3-3-3-3-5-5-5-5-3-3-5-5--7-7--| 
A|5-5-5-5-1-1-1-1-3-3-3-3----------5-5-5~| 
E|---------------------------------------| 
 
When I'm walking a dark road   
I am a man who walks alone 


Arkadaşlar biraz karışık oldu ama idare edin:)

Iron Maiden Metallica Blind Guardian vb gitar akor veya tabları için ekleyebilirsiniz.
fbayrakceken@hotmail.com

Kolay gelsin...
Fear Of The Dark Tab, AkorMerkezi.com'da yayınlanmıştır.
http://www.akormerkezi.com


İçerik Kısa Linki:


Beğendiniz mi? Fear Of The Dark Tab sayfasını Şimdi paylaşın:


Fear Of The Dark Tab için Komoçotoko'dan Gelenler
Aramalar: iron maiden fear of the dark, fear of the dark solo tabları, the fear of the dark, iron maiden the fear of the dark, fear of the dark tab, fear of the dark
Iron Maiden - Fear Of The Dark için Kullanıcı Görüşleri

Henüz buraya yazan çizen olmamış. Yorum yapmak için buraya tıklayabilirsiniz.


Siz de Görüş Bildirin

Yorum yazma alanı Akor Merkezi üyelerine özel bir bölümdür. (Giriş Yap / Üye Ol / Şifremi Hatırlat)


PAYLAŞ

Reklam



Anket
gitarism soruyor:
En İyi Yerli Grup.. ?













Sonuçlar | Sonuçlar & Yorumlar
Yeni Anket | Anketler




Reklam


Radyo Dinle
AkorMerkezi.com © 2014
İletişim - Gizlilik Politikası - Kullanım Koşulları - Kurallar - Son Yorumlar - Rastgele

GitarAkor.com kolonisidir. Derleme 0,06 saniye.