Akor Tab Söz Çeviri Anasayfası
Akor|Tab|Söz|Nota Arşivi
Gitar Akorları | Tab,Söz ve Nota Anasayfası | En Yeni Şarkılar | En Popüler Şarkılar | Akor Cetveli

Bilgiler
 
Seslendiren ve Şarkı: Kargo - Yıldızların Altında
Biçim: TAB - SOLO
Tarih: 02 Aralık 2008 Salı
Gönderen: BlindImam
Toplam Okuyan: 51.084 kişi
Bu Ay Okuyan: 1 kişi
Bu Hafta Okuyan: 112 kişi
 
Beğendiniz mi? Yıldızların Altında Tab sayfasını Şimdi paylaşın:

Kargo - Yıldızların Altında - Tab

  (versiyon 2)
Puanlama:
 (19 kişi)

Yıldızların Altında şarkısının diğer versiyonlarına bakın >>

Metin boyutu: ( + Büyült ) ( - Küçült)   
E||-----------------------------|----1--------0-------|
B||----------0--1--3----1----|-----------------------|
G||*-----2--------------------|-----------------------|
D||*---------------------------|-----------------------|
A||-----------------------------|-----------------------|
E||-----------------------------|-----------------------|

--0--1--1--0--0-------------|--0----------------|--------------------------|
--------------------3--3--1---|-------------------|-----3--1--0--1----3---|
--------------------------------|-------------------|---------------------------|
--------------------------------|-------------------|---------------------------|
--------------------------------|-------------------|---------------------------|
--------------------------------|-------------------|---------------------------|

--0-----------------|----------------0--------------|--------------------||
-----------1--------|--0--1--3--1-----3--1--0--|---------------------||
---------------------|-------------------------------|--2----------------*||
---------------------|-------------------------------|--------------------*||
---------------------|-------------------------------|---------------------||
---------------------|-------------------------------|---------------------|

---5----3----1----0----|--L--3----1--1--0--0----|--0--1------0-------|
--------------------------|----------------------------|-----------------3----|
*------------------------|----------------------------|-----------------------|
*------------------------|----------------------------|-----------------------|
--------------------------|----------------------------|-----------------------|
--------------------------|----------------------------|----------------------


-----0---------------------|---------------------------|--0------------------|
--L-------3--1--0--1----|-----3--1--0--1----3----|-----------1--------|
---------------------------|----------------------------|---------------------|
---------------------------|----------------------------|---------------------|
---------------------------|----------------------------|---------------------|
---------------------------|----------------------------|---------------------|

-----------------0------------|---------------------||
--0--1--3--1------3--1--0--|---------------------||
-------------------------------|--2----------------*||
-------------------------------|-------------------*||
-------------------------------|---------------------||
-------------------------------|---------------------||

     BlindImam

Yıldızların Altında Tab, AkorMerkezi.com'da yayınlanmıştır.
http://www.akormerkezi.com


İçerik Kısa Linki:


Beğendiniz mi? Yıldızların Altında Tab sayfasını Şimdi paylaşın:


Yıldızların Altında şarkısı için amatör kayıtları dinleyin: (Siz de Ekleyin)

Yıldızların Altında Tab için Komoçotoko'dan Gelenler
Aramalar: yıldızların altında 4, bak yildizlar altinda gitar akor, Kargo - Yıldızların Altında - Tab, yıldızlar altında keman nota, yıldızlarım altımda tab, akor merkezi yıldızların altında, bak yıldızlar altında akor 2 versiyon, tab de yıldızların altında, bak yıldızlar altında tab, Yıldızların altınada tab
Kargo - Yıldızların Altında için Kullanıcı Görüşleri

Pek olmamış gibi ama yinede emeğine klavyene sağlık.


Bu Yoruma Cevap Ver
DeaTrigger | 06 Nisan 2013 Cumartesi 14:58
bence güzell ben çok beğendim tab için teşekkür ederim :)


Bu Yoruma Cevap Ver
maviş398 | 25 Aralık 2012 Salı 20:38
E --5-3-1-0-3-1-0-----0-1-0-----0------------------------0------------------0-----
B -------------------------------3-----3-1-------3-1-0-1-3---1-----0-1-3-1--1----
G ------------------------------------------------------------------------------------2-


3-3 yerine 0-3 daha uygun olucaktır :)


Bu Yoruma Cevap Ver
яus | 25 Ocak 2012 Çarşamba 01:06
emeğine sağlık


Bu Yoruma Cevap Ver
roberko | 28 Ekim 2011 Cuma 19:11
23 Eylül 2011 Cuma tarihinde bayefsane yazmıştı:
16 Ağustos 2011 Salı tarihinde lasasur yazmıştı:
04 Aralık 2008 Perşembe tarihinde nazlii yazmıştı:

E --------------1-0----0-1-1-0-0----------0---------------0------------------0-------
B ---0-1-3-1-----------------------3-3-1------3-1-0-1-3----1-----0-1-3-1---1------
G -2-----------------------------------------------------------------------------------2----


E --5-3-1-3-3-1-0-----0-1-0-----0------------------------0------------------0-----
B -------------------------------3-----3-1-------3-1-0-1-3---1-----0-1-3-1--1----
G ------------------------------------------------------------------------------------2-


daha net ve bir kac değişiklikle daha iyi oldu sanki
evet bu gayet güzel olmuş şuanki gitarımda 1.telinde akor problemi olmasına rağmen çok yakın ses aldım.O da benden kaynaklı düzgün bir gitarla en iyi ses çıkacağına eminim... Bravo...
gerçekten haklısın 2 aya yakın süredir gitrda akor yapmadım ama bu şarkı çok güzel çıkıyo
huhu


Bu Yoruma Cevap Ver
bayefsane | 10 Ekim 2011 Pazartesi 19:25
16 Ağustos 2011 Salı tarihinde lasasur yazmıştı:
04 Aralık 2008 Perşembe tarihinde nazlii yazmıştı:

E --------------1-0----0-1-1-0-0----------0---------------0------------------0-------
B ---0-1-3-1-----------------------3-3-1------3-1-0-1-3----1-----0-1-3-1---1------
G -2-----------------------------------------------------------------------------------2----


E --5-3-1-3-3-1-0-----0-1-0-----0------------------------0------------------0-----
B -------------------------------3-----3-1-------3-1-0-1-3---1-----0-1-3-1--1----
G ------------------------------------------------------------------------------------2-


daha net ve bir kac değişiklikle daha iyi oldu sanki
evet bu gayet güzel olmuş şuanki gitarımda 1.telinde akor problemi olmasına rağmen çok yakın ses aldım.O da benden kaynaklı düzgün bir gitarla en iyi ses çıkacağına eminim... Bravo...
gerçekten haklısın 2 aya yakın süredir gitrda akor yapmadım ama bu şarkı çok güzel çıkıyo


Bu Yoruma Cevap Ver
bayefsane | 23 Eylül 2011 Cuma 22:49
04 Aralık 2008 Perşembe tarihinde nazlii yazmıştı:

E --------------1-0----0-1-1-0-0----------0---------------0------------------0-------
B ---0-1-3-1-----------------------3-3-1------3-1-0-1-3----1-----0-1-3-1---1------
G -2-----------------------------------------------------------------------------------2----


E --5-3-1-3-3-1-0-----0-1-0-----0------------------------0------------------0-----
B -------------------------------3-----3-1-------3-1-0-1-3---1-----0-1-3-1--1----
G ------------------------------------------------------------------------------------2-


daha net ve bir kac değişiklikle daha iyi oldu sanki
evet bu gayet güzel olmuş şuanki gitarımda 1.telinde akor problemi olmasına rağmen çok yakın ses aldım.O da benden kaynaklı düzgün bir gitarla en iyi ses çıkacağına eminim... Bravo...


Bu Yoruma Cevap Ver
lasasur | 16 Ağustos 2011 Salı 23:59
gayet guzel elekro gitarda calındıgında ojjinal .. Çalmayı bilmiyosanız yorum yapmayın


Bu Yoruma Cevap Ver
kingsaygin2 | 19 Nisan 2011 Salı 20:39
biraz daha üstünde çalışmak lazım sanki.... genede emeğe sağlık


Bu Yoruma Cevap Ver
king kong | 12 Şubat 2011 Cumartesi 12:18
tab gayet doğru saolasın blindlmam


Bu Yoruma Cevap Ver
artisttt | 08 Ağustos 2010 Pazar 12:35
en alttaki cok ıyı olmus emegıne saglık


Bu Yoruma Cevap Ver
kilicbey | 12 Mayıs 2010 Çarşamba 02:39
emeğe saygı çok biliyosanız kendiniz yazınız


Bu Yoruma Cevap Ver
asdsad2 | 01 Mayıs 2010 Cumartesi 21:57
nazlii ii olmus


Bu Yoruma Cevap Ver
dgfdhdfgh | 27 Mart 2010 Cumartesi 11:46
l ne demek?


Bu Yoruma Cevap Ver
paradoks05 | 07 Mart 2010 Pazar 20:37
07 Aralık 2008 Pazar tarihinde BlindImam yazmıştı:
beyler biraz acıyın daha gitara başlayalı 3 ay oldu
bencede kötü olmuş nazlininki başları ii ama kalana irençç:(


Bu Yoruma Cevap Ver
rock_angel* | 25 Eylül 2009 Cuma 22:28
helal olsun güzel çıkarmışsın kulağına sağlık


Bu Yoruma Cevap Ver
Jungle God | 03 Mayıs 2009 Pazar 14:00
L de ne yapıyoruz bilen varmı


Bu Yoruma Cevap Ver
r3aLMaRDIN | 31 Ocak 2009 Cumartesi 18:44
yorum yazın beyler


Bu Yoruma Cevap Ver
BlindImam | 22 Aralık 2008 Pazartesi 16:02
BlindImam güzel olmuş ancak bazı yerlerde eksiklerin var nazlii nin çıkardığı daha net ses veriyor ama onunda bazı yerlere ekleme yapmak gerekiyor...3 aya göre gayet güzel olmuş yinede.Başarının devamını diliyorum....Saygılar


Bu Yoruma Cevap Ver
oguzhan1 | 14 Aralık 2008 Pazar 14:38
beyler biraz acıyın daha gitara başlayalı 3 ay oldu


Bu Yoruma Cevap Ver
BlindImam | 07 Aralık 2008 Pazar 19:17
nazliii berbat olmus bu ne kardesım '' bırak yukardakı daha guzel ''sadece
---5----3----1----0----|--L--3----1--1--0--0----|--0--1------0--(0)-----| ---> (bır (0) daha olucak )
--------------------------|----------------------------|-----------------3----|
*------------------------|----------------------------|-----------------------|
*------------------------|----------------------------|-----------------------|
--------------------------|----------------------------|-----------------------|
--------------------------|----------------------------|----------------------
okadar ... guzel olmus ...!!!! 0 ı koyun daha guzel olsun


Bu Yoruma Cevap Ver
gangsta50 | 06 Aralık 2008 Cumartesi 19:27
Senin yaptığın biraz daha güzel.


Bu Yoruma Cevap Ver
ARDA995 | 05 Aralık 2008 Cuma 12:41

E --------------1-0----0-1-1-0-0----------0---------------0------------------0-------
B ---0-1-3-1-----------------------3-3-1------3-1-0-1-3----1-----0-1-3-1---1------
G -2-----------------------------------------------------------------------------------2----


E --5-3-1-3-3-1-0-----0-1-0-----0------------------------0------------------0-----
B -------------------------------3-----3-1-------3-1-0-1-3---1-----0-1-3-1--1----
G ------------------------------------------------------------------------------------2-


daha net ve bir kac değişiklikle daha iyi oldu sanki


Bu Yoruma Cevap Ver
nazlii | 04 Aralık 2008 Perşembe 00:59


Siz de Görüş Bildirin

Yorum yazma alanı Akor Merkezi üyelerine özel bir bölümdür. (Giriş Yap / Üye Ol / Şifremi Hatırlat)


PAYLAŞ

Reklam



Anket
alp2612 soruyor:
Gitarım Çok Çizik Yenisini mi Alayım Yoksa Cilalatayım mı?







Sonuçlar | Sonuçlar & Yorumlar
Yeni Anket | Anketler




Reklam


Radyo Dinle
AkorMerkezi.com © 2014
İletişim - Gizlilik Politikası - Kullanım Koşulları - Kurallar - Son Yorumlar - Rastgele

GitarAkor.com kolonisidir. Derleme 0,06 saniye.