Akor Tab Söz Çeviri Anasayfası
Akor|Tab|Söz|Nota Arşivi
Gitar Akorları | Tab,Söz ve Nota Anasayfası | En Yeni Şarkılar | En Popüler Şarkılar | Akor Cetveli

Bilgiler
 
Seslendiren ve Şarkı: Kargo - Yıldızların Altında
Biçim: TAB - HİÇBİRİ
Tarih: 21 Aralık 2008 Pazar
Gönderen: bov
Toplam Okuyan: 23.912 kişi
Bu Ay Okuyan: 347 kişi
Bu Hafta Okuyan: 89 kişi
 
Beğendiniz mi? Yıldızların Altında Tab sayfasını Şimdi paylaşın:

Kargo - Yıldızların Altında - Tab

  (versiyon 3)
Puanlama:
 (24 kişi)

Yıldızların Altında şarkısının diğer versiyonlarına bakın >>

Metin boyutu: ( + Büyült ) ( - Küçült)   
E|-0-2-3-5-7-8-7-7-8-8-7-7-5-5-3-7------------------------|
B|--------------------------------------------------------|
G|--------------------------------------------------------|
D|--------------------------------------------------------|
A|--------------------------------------------------------|
E|--------------------------------------------------------|
Yıldızların Altında Benim gönlüm serhoştur 
Yıldızların altında 

E|-5-3-2-3-5-7-3-2-3-5-3-7-2-0----------------------------|
B|--------------------------------------------------------|
G|--------------------------------------------------------|
D|--------------------------------------------------------|
A|--------------------------------------------------------|
E|--------------------------------------------------------|
Sevişmek ah ne hoştur 
Yıldızların altında 

E|-12-10-8-7-10-8-7-8-8-7-5-7-5-3-------------------------|
B|--------------------------------------------------------|
G|--------------------------------------------------------|
D|--------------------------------------------------------|
A|--------------------------------------------------------|
E|--------------------------------------------------------|
Yanmam gönül yansa da 
Ecel beni alsa da 

E|-5-3-2-3-5-7-3-2-3-5-3-7-2-0--------------------------|
B|--------------------------------------------------------|
G|--------------------------------------------------------|
D|--------------------------------------------------------|
A|--------------------------------------------------------|
E|--------------------------------------------------------| 
Gözlerim kapansa da 
Yıldızların altında 

 ŞARKININ DEVAMI


Mavi nurdan bir ırmak 
Gölgede bir salıncak 
Bir de ikimiz kalsak 
Yıldızların altında 

Yanmam gönül yansada 
Ecel beni alsada 
Gözlerim kapansada 
Yıldızların altında 

Ne keder ne yas olur 
Yıldızların altında 
Çakıllar elmas olur 
Yıldızların altında 

Yanmam gönül yansa da 
Ecel beni alsa da 
Gözlerim kapansa da 
Yıldızların altında 

ŞARKININ DEVAMINI DA AYNI TABLARLA ÇALABİLİRSİNİZ
YORUMLARINIZI BEKLİYORUM...


Yıldızların Altında Tab, AkorMerkezi.com'da yayınlanmıştır.
http://www.akormerkezi.com


İçerik Kısa Linki:


Beğendiniz mi? Yıldızların Altında Tab sayfasını Şimdi paylaşın:


Yıldızların Altında şarkısı için amatör kayıtları dinleyin: (Siz de Ekleyin)

Yıldızların Altında Tab için Komoçotoko'dan Gelenler
Aramalar: yıldızların altında tab akor, yıldızları altında gitar tab, yi.dizlarin altinda tab, kargo yıldızların altında gitar ritmi, yıldızların altınada tap, kalgoyıldızlarınaltında, yildizlarin altinda nota gitar, klasik gitarla yıldızların altında akor, yıldızların altında tabları, ydizlarin altinda tab
Kargo - Yıldızların Altında için Kullanıcı Görüşleri

saolsaın hacı :D


Bu Yoruma Cevap Ver
goztepele | 04 Nisan 2011 Pazartesi 18:03
---------------------------I---1--0---I---0--1--1--0--0----------------I--0--I---------------------I----0-------I------------------0------------------------I
----------0--1--3--1-----I-----------I-----------------------3--3--1---I------I---3--1--0--1--3--I---------1--I---0--1--3--1----------3--1--0----------I
-----2---------------------I-----------I----------------------------------I------I---------------------I------------I----------------------------------------2---I



-----5--3--1--0----I-----3--1--1--0--0------I----1--1--0--0--------------I---------0------------------------I-------------------------I----0------------I
---------------------I---------------------------I---------------------3--3----I----------------3--1--0--1------I-----3--1--0--1--3-----I---------1-------I




--------------------------0----------------------------------------I
------0---1---3---1------------3---1---0------------------------I
-----------------------------------------------------2-------------I





Bu Yoruma Cevap Ver
HyPnose86 | 23 Mart 2010 Salı 20:58
eline sağlık hacı


Bu Yoruma Cevap Ver
tiredpessimist | 30 Haziran 2009 Salı 10:36
:)


Bu Yoruma Cevap Ver
bov | 26 Aralık 2008 Cuma 16:58
helal len bov ;) tam olmus kardedım xD


Bu Yoruma Cevap Ver
minikejder | 26 Aralık 2008 Cuma 16:46


Siz de Görüş Bildirin

Yorum yazma alanı Akor Merkezi üyelerine özel bir bölümdür. (Giriş Yap / Üye Ol / Şifremi Hatırlat)


PAYLAŞ

Reklam



Anket
olicityFAN soruyor:
Taylor Swift En İyi Şarkısı ?












Sonuçlar | Sonuçlar & Yorumlar
Yeni Anket | Anketler




Reklam


Radyo Dinle
AkorMerkezi.com © 2014
İletişim - Gizlilik Politikası - Kullanım Koşulları - Kurallar - Son Yorumlar - Rastgele

GitarAkor.com kolonisidir. Derleme 0,05 saniye.