Akor Tab Söz Çeviri Anasayfası
Akor|Tab|Söz|Nota Arşivi
Gitar Akorları | Tab,Söz ve Nota Anasayfası | En Yeni Şarkılar | En Popüler Şarkılar | Akor Cetveli

Bilgiler
 
Seslendiren ve Şarkı: Kurban - Sakın Söyleme
Biçim: TAB -
Tarih: 23 Haziran 2005 Perşembe
Gönderen: bluebluesband
Toplam Okuyan: 6.627 kişi
Bu Ay Okuyan: 77 kişi
Bu Hafta Okuyan: 5 kişi
 
Beğendiniz mi? Sakın Söyleme Tab sayfasını Şimdi paylaşın:
DİKKAT!
Sakın Söyleme Tab sayfasını düzgün görüntüleyemiyor olabilirsiniz.
Eğer böyle bir sıkıntınız varsa tıklayın.

Kurban - Sakın Söyleme - Tab


Puanlama:
 (3 kişi)

Sakın Söyleme şarkısının diğer versiyonlarına bakın >>

Metin boyutu: ( + Büyült ) ( - Küçült)   
Intro:
                                                      7x
E||---------------------------------------------------||
B||---------------------------------------------------||
G||*-------------------------------------0--0--------*||
D||*-------2--2--2h3p2p0-----------4--4--------4--0--*||
A||---0------------------3h-5-------------------------||
E||---------------------------------------------------||


   Am                                       Em             F7M          3x
---0------0----------0----------------------0------0--0----0--------0---||
---1------1----1--3-----3p1p0---------0-----0------0--0----1--------1---||
*--2------2----------------------2-------0--0------0--0----2--------2--*||
*--2------2---------------------------------2------2--2----3--------3--*||
---0------0---------------------------------2------2--2----3--------3---||
--------------------------------------------0------0--0-----------------||


                                                   2x
---------------------------------------------------||
---------------------------------------------------||
*-------------------------------------0--0--------*||
*-------2--2--2h3p2p0-----------4--4--------4--0--*||
---0------------------3h-5-------------------------||
---------------------------------------------------||

 
--------------------------------------------------|
--------------------------------------------------|
--------------------------------------0--0--------|
-------2--2--2h3p2p0------------4--4--------4--0--|
--0------------------3h-7p-5----------------------|
--------------------------------------------------|

 
------------------------------------------|
------------------------------------------|
------------0-------------------0---------|
-------2---------2---------2---------2----|
--3-------------------2-------------------|
------------------------------------------|


  Am                                     
--0--0------------0--------------------||
--1h-3----------------3----------------||
--2--2--------------------2~-----------||
--2--2---------------------------------||
--0--0---------------------------------||
---------------------------------------||


Giriş 1.kısım:

                                3x                               3x
E||-----------------------------||-------------------------------||
B||-----------------------------||-------------------------------||
G||*---------0-----------------*||*---------0-------------------*||
D||*-----0h2----2------0----0--*||*-----0h2----2--------0----0--*||
A||---0------------3-----2------||---0------------3p2h3---2------||
E||-----------------------------||-------------------------------||


Giriş 2.kısım:
                                  3x
E||-------------------------------||
B||-------------------------------||
G||*---------0h2-----------------*||
D||*-----0h2-----0h2-----0----0--*||
A||---0--------------3-----2------||
E||-------------------------------||


Söz Kısmı (akorlar):

      Am                  C                   G                 
E||---0----------------|--0----------------|--3----------------|
B||---1----------------|--1----------------|--3----------------|
G||*--2----------------|--0----------------|--0----------------|
D||*--2----------------|--2----------------|--0----------------|
A||---0----------------|--3----------------|--2----------------|
E||--------------------|--3----------------|--3----------------|
unuttum dedim, aslında...

  Am       D         2x 
--0--------2---------||
--1--------3---------||
--2--------2--------*||
--2--------0--------*||
--0------------------||
---------------------||

   C                   G                 
---0----------------|--3----------------|
---1----------------|--3----------------|
*--0----------------|--0----------------|
*--2----------------|--0----------------|
---3----------------|--2----------------|
---3----------------|--3----------------|
söyleme asla...

  C                   Am       D           
--0----------------|--0--------2---------||
--1----------------|--1--------3---------||
--0----------------|--2--------2--------*||
--2----------------|--2--------0--------*||
--3----------------|--0------------------||
--3----------------|---------------------||
ne şimdi ne de sonra...


Nakarat (akorlar): ( *basın distortion’u gitsin :P )

      A5                  C5       G5        7x  E                  
E||--------------------|---------------------||--0----------------||
B||--------------------|---------------------||--0----------------||
G||*-------------------|--5-----------------*||--1----------------||
D||*--7----------------|--5--------5--------*||--2----------------||
A||---7----------------|--3--------5---------||--2----------------||
E||---5----------------|-----------3---------||--0----------------||
sakın söyleme...


Köprü:

                                                       7x
E||----------------------------------------------------||
B||----------------------------------------------------||
G||*--------------------------------------------------*||
D||*-----------------2--------0-----------------------*||
A||---0--0--0--0--3-----3--2-----2-----------------0---||
E||---------------------------------3--3--3--0--3------||

( * Elemanlar şarkının bu bölümünden sonra coştukça coşuyorlar. Şarkının bundan sonrasını oturup da çıkarmaya 
açıkçası üşendim. Kusura bakmayın arkadaşlar, hepinize kolay gelsin!.. )


Sözler:

unuttum dedim, aslında 
yalandı çıkmaz aklımdan 
alıştım dedim, aslında 
kendimi kandırdığımdan 

söyleme asla 
ne şimdi ne de sonra 
söyleme asla 
ne şimdi ne de sonra 

sakın söyleme 

ağlayan gözler aslında 
gülermiş bakarken ardımdan 
özledim derken aslında 
başkası geçermiş aklından 

söyleme asla 
ne şimdi ne de sonra 
söyleme asla 
ne şimdi ne de sonra 

sakın söyleme

Sakın Söyleme Tab, AkorMerkezi.com'da yayınlanmıştır.
http://www.akormerkezi.com


İçerik Kısa Linki:


Beğendiniz mi? Sakın Söyleme Tab sayfasını Şimdi paylaşın:


Sakın Söyleme Tab için Komoçotoko'dan Gelenler
Aramalar: söyleme şarkının sözleri, kurban sakın söyleme gp, sakın söyleme kurban, kurban sakın söyleme songsterr, kurban söylme akor, kurban ssakın söyleme nota, kurban sakın söyleme gitar akoru, sakin söyleme kurban bas tab, sakin söyleme kurban bass tab, kurban sakın söyleme bass tab
Kurban - Sakın Söyleme için Kullanıcı Görüşleri

Başta ki kısım Sus şarkısının tabıymış bende ayar oldum ilk başta.Sakın söyleme şarkısının intro tabı şu şekilde çalınabilir.

E||----------------------------------------------------||
B||----------------------------------------------------||
G||*------------------0-------------------------------*||
D||*-----------0h2------2-------0-------0----------*||
A||------0--------------------3-------2---------------||
E||--------------------------------------------------- -||



Bu Yoruma Cevap Ver
Sinestezi | 05 Şubat 2014 Çarşamba 15:35
Kulağına sağlık :D


Bu Yoruma Cevap Ver
tkerim | 27 Mayıs 2012 Pazar 21:32
bence coştukları kısma giriş şöyle olabilir zaten sonra aynısının power chordlarını atıyorlar..

sonraki part

E||----------------------------------------------------||
B||----------------------------------------------------||
G||*--------------------------------------------------*||
D||*--------------------------------------------------*||
A||------------3---5---3---5---3h0------------------||
E||----5--5--------------------------3-4-------------||




E||----------------------------------------------------||
B||----------------------------------------------------||
G||*--------------------------------------------------*||
D||*-------------5/-7--5/-7-----5--0--------------*||
A||-----7---7---3/-5--3/-5-----3--0----5--6------||
E||-----5---5------------------------------3--4------||


Bu Yoruma Cevap Ver
kontbaba | 09 Kasım 2010 Salı 18:52
sus sakın söyleme parçasının introsu olarak geçiyo..o yüzden ikisinin de tabını yazmış..


Bu Yoruma Cevap Ver
hero_monster | 23 Kasım 2009 Pazartesi 23:12
emeğine sağlık ama isim yanlış olmuş bu (sus)un tabı sakın söyleme farklı!!!


Bu Yoruma Cevap Ver
yengeç12 | 17 Mart 2009 Salı 18:13
emeıne saalık baba yanlıslarıda sız duzeltın artk beyler adam kalıbı yaratmıs ıste


Bu Yoruma Cevap Ver
ahmt | 06 Aralık 2008 Cumartesi 00:17
eline sağlık beğenmedim ama gücenme....


Bu Yoruma Cevap Ver
falco_n35 | 03 Haziran 2007 Pazar 16:33
en başta "sus" tabı var... =)) sanırım karıstırmıs... sonra giriş yazan yerden itibaren "sakın söyleme" geçilmiş :D hatalar var..


Bu Yoruma Cevap Ver
xurkurban | 18 Mayıs 2007 Cuma 16:58
ula bı wah pedalım olacak kı su sarkıyı ottururdum valla..dıstortıon la olmuo sadece...:(


Bu Yoruma Cevap Ver
kirk91 | 17 Ekim 2006 Salı 18:16
harbi iyi olmuş


Bu Yoruma Cevap Ver
edi666 | 25 Ağustos 2006 Cuma 01:24
evet baştaki sus hem de yanlış o biraz galiba . sustaki, orada ki F7M değil. üst 4 tele boş vurulacak


Bu Yoruma Cevap Ver
Fatih | 16 Temmuz 2006 Pazar 17:42
Baştaki SUS o ayrı bi şarkı.Nedense birleşik zannediyo herkes.Güzel tab.


Bu Yoruma Cevap Ver
CaFeiN | 04 Şubat 2006 Cumartesi 23:45
baba sağlam işte başka yoruma gerek yok!


Bu Yoruma Cevap Ver
gitarhastası | 19 Kasım 2005 Cumartesi 21:13
tsk baba eline koluna serce parmagına saglık :P


Bu Yoruma Cevap Ver
gitar_manyak | 08 Ekim 2005 Cumartesi 19:40
emee saygi 'güzel'


Bu Yoruma Cevap Ver
cort_m600 | 14 Temmuz 2005 Perşembe 00:44


Siz de Görüş Bildirin

Yorum yazma alanı Akor Merkezi üyelerine özel bir bölümdür. (Giriş Yap / Üye Ol / Şifremi Hatırlat)


PAYLAŞ

Reklam



Anket
eylülbeş soruyor:
Extreme Marka 20 Lik Amfi Sizce Nasıl ?









Sonuçlar | Sonuçlar & Yorumlar
Yeni Anket | Anketler




Reklam


Radyo Dinle
AkorMerkezi.com © 2014
İletişim - Gizlilik Politikası - Kullanım Koşulları - Kurallar - Son Yorumlar - Rastgele

GitarAkor.com kolonisidir. Derleme 0,06 saniye.