Akor Tab Söz Çeviri Anasayfası
Akor|Tab|Söz|Nota Arşivi
Gitar Akorları | Tab,Söz ve Nota Anasayfası | En Yeni Şarkılar | En Popüler Şarkılar | Akor Cetveli

Bilgiler
 
Seslendiren ve Şarkı: Kurban - Uyut Beni
Biçim: TAB -
Tarih: 10 Temmuz 2005 Pazar
Gönderen: ramesoon
Toplam Okuyan: 3.872 kişi
Bu Ay Okuyan: 38 kişi
Bu Hafta Okuyan: 11 kişi
 
Beğendiniz mi? Uyut Beni Tab sayfasını Şimdi paylaşın:

Kurban - Uyut Beni - Tab


Puanlama:
 (1 kişi)

Uyut Beni şarkısının diğer versiyonlarına bakın >>

Metin boyutu: ( + Büyült ) ( - Küçült)   
GİRİŞ:

Gitar 1:
                                           
E||---------------------------------------|
B||------------0-----------------0--------|
G||*--------0-----0-----------0-----0-----|
D||*-----9-----------9-----9-----------9--|
A||---7-----------------7-----------------|
E||---------------------------------------|

 
-------------------------------------|--------------------------------------|
-----------0-----------------0-------|-----------0-----------------0--------|
--------0-----0-----------0----------|--------0-----0-----------0-----0-----|
-----7-----------7-----7--------7----|-----7-----------7-----7-----------7--|
--5-----------------5----------------|--4-----------------4-----------------|
-------------------------------------|--------------------------------------|


----------------------------------||---------------------------------------|
-----------0----------------------||------------0-----------------0--------|
--------0-----0------------------*||*--------0-----0-----------0-----0-----|
-----7-----------7---------------*||*-----9-----------9-----9-----------9--|
--3-----------------3-------------||---7-----------------7-----------------|
----------------------------------||---------------------------------------|


-------------------------------------|--------------------------------------|
-----------0-----------------0-------|-----------0-----------------0--------|
--------0-----0-----------0----------|--------0-----0-----------0-----0-----|
-----7-----------7-----7--------7----|-----7-----------7-----7-----------7--|
--5-----------------5----------------|--4-----------------4-----------------|
-------------------------------------|--------------------------------------|


----------------------------------||----7--7--7--7--7--7--7--7--7--7--7--7--||
-----------0----------------------||----8--8--8--8--8--8--7--7--7--7--7--7--||
--------0-----0------------------*||*---9--9--9--9--9--9--9--9--9--9--9--9-*||
-----7-----------7---------------*||*---9--9--9--9--9--9--9--9--9--9--9--9-*||
--3-----------------3-------------||----7--7--7--7--7--7--7--7--7--7--7--7--||
----------------------------------||----------------------------------------||

Gitar 2:
                                                             
E||-------------------|------------------|------------------|
B||-------------------|------------------|------------------|
G||*------------------|------------------|------------------|
D||*------------------|------------------|------------------|
A||-------------------|------------------|------------------|
E||-------------------|------------------|------------------|

 
-------------------||---------------------------------------|
-------------------||------8-----7-----8-----8-----7-----8--|
------------------*||*--9-----9-----9-----9-----9-----9-----|
------------------*||*--------------------------------------|
-------------------||---------------------------------------|
-------------------||---------------------------------------|

 
--------------------------------------|--------------------------------------|
-----8-----7-----8-----8-----7-----8--|-----8-----7-----8-----8-----7-----8--|
--9-----9-----9-----9-----9-----9-----|--9-----9-----9-----9-----9-----9-----|
--------------------------------------|--------------------------------------|
--------------------------------------|--------------------------------------|
--------------------------------------|--------------------------------------|

 
----------------------------------||--------------------------------||
-----8-----7-----8----------------||--------------------------------||
--9-----9-----9-----9------------*||*------------------------------*||
---------------------------------*||*------------------------------*||
----------------------------------||--------------------------------||
----------------------------------||--------------------------------||


AKORLAR (söz kısmı):
                                           
E||----7--7--7--7--7--7--5--5--5--5--5--5-|
B||----8--8--8--8--8--8--7--7--7--7--7--7-|
G||*---9--9--9--9--9--9--7--7--7--7--7--7-|
D||*---9--9--9--9--9--9--7--7--7--7--7--7-|
A||----7--7--7--7--7--7--5--5--5--5--5--5-|
E||---------------------------------------|
açlığa gömdün bu canı niye...
 
--5---5-5---5-5---5-5---5-3---3-3---3-5---5-5---5--||
--5---5-5---5-5---5-5---5-3---3-3---3-7---7-7---7--||
--6---6-6---6-6---6-6---6-4---4-4---4-7---7-7---7-*||
--7---7-7---7-7---7-7---7-5---5-5---5-7---7-7---7-*||
--7---7-7---7-7---7-7---7-5---5-5---5-5---5-5---5--||
--5---5-5---5-5---5-5---5-3---3-3---3--------------||
toprağına güzellik tohumlarını eken benim...


NAKARAT:

*** Giriş Bölümüyle Aynı ***


KÖPRÜ:
                                                       
E||-------------------------------------------7------||
B||--------------5-7-8-7-5--------------5-7-8---7-8--||
G||*-----------7-----------7----------7-------------*||
D||*--2---2-2----------------2---2-2----------------*||
A||---2---2-2----------------3---3-3-----------------||
E||---0---0-0----------------3---3-3-----------------||



Uyut Beni Tab, AkorMerkezi.com'da yayınlanmıştır.
http://www.akormerkezi.com


İçerik Kısa Linki:


Beğendiniz mi? Uyut Beni Tab sayfasını Şimdi paylaşın:


Uyut Beni Tab için Komoçotoko'dan Gelenler
Aramalar: fundy gamzende uyut beni tab, kirban uyut beni akor, kurban uyut beni bass tab, uyut beni akor, gamzende uyut beni gitar notaları, gamzemde uyut beni akor, gamzende uyut beni gitar solo notaları ve sözleri, kurban uyut beni tap, kurban uyut beni, gamzende uyut benı saz notaları
Kurban - Uyut Beni için Kullanıcı Görüşleri

E||------------------------------------------------------------5---------------------|| <br/>
B||------------------5-6-5---------------------------5--6--------5--6------------|| <br/>
G||*-------------7----------7-5------------------7----------------------7-------*|| <br/>
D||*--2---2-2-------------------8----2---2-2----------------------------------*|| <br/>
A||---2---2-2-------------------------3----3-3-----------------------------------|| <br/>
E||---0---0-0-------------------------3----3-3-----------------------------------||&nbsp;<br/>
<br/>
Solo kısmı b&ouml;yle daha iyi gibi geldi bana<br/>
G&uuml;zel TAB olmuş Eywallah


Bu Yoruma Cevap Ver
DonsuZGiTaRCI | 30 Mayıs 2008 Cuma 23:47
baba ii uğraşmışsın,ben beğendim,eline sağlık


Bu Yoruma Cevap Ver
enigma | 16 Aralık 2007 Pazar 13:53
usta iyi olmuş


Bu Yoruma Cevap Ver
mahonirock | 15 Temmuz 2007 Pazar 16:32
çok saol gerçekden güzel olmuş


Bu Yoruma Cevap Ver
static-x | 13 Temmuz 2007 Cuma 21:03
eee o zaman bizde yanlıs calıyoz aga yuklede daha ıyı calalım guzel olmus kardesım elıne sağlık


Bu Yoruma Cevap Ver
pnt | 11 Nisan 2007 Çarşamba 11:21
güzel olmuş ellerine sağlık


Bu Yoruma Cevap Ver
rockalem | 23 Kasım 2006 Perşembe 14:07
abi güsel işte


Bu Yoruma Cevap Ver
rockturka | 22 Ağustos 2006 Salı 21:18
ya güzel ama bi yerde sorun var..."toprağına güzellik tohumalarını eken benim" kısmında yukardaki notaların iki ayrı gitar tarafından arpejleri var..ikiside aynı notalardan "farklı arpejler" yapıyolar....hatta iyi dinleyin..sesler bazen yer değiştiriyo..sağdan gelen arpej sesleri iki ölçü sonra sola filan geçio...en sonda da çok güzel arpejler var..ben çıkarttım ama üşeniyom yazmaya :)


Bu Yoruma Cevap Ver
simyon | 26 Aralık 2005 Pazartesi 13:52
güzel olmus eline sağlık


Bu Yoruma Cevap Ver
ibrahimorhan91 | 02 Kasım 2005 Çarşamba 20:03
süper abi


Bu Yoruma Cevap Ver
alwaysnevermind | 09 Eylül 2005 Cuma 20:07
hocam eline sağlık orjinali gibi olmuş 4 dötlük


Bu Yoruma Cevap Ver
ebola | 06 Eylül 2005 Salı 14:13
güzel olmuş


Bu Yoruma Cevap Ver
e.s.p. | 22 Temmuz 2005 Cuma 20:07
Gitar 1:

E||---------------------------------------|
B||------------0-----------------0--------|
G||*--------0-----0-----------0-----0-----|
D||*-----9-----------9-----9-----------9--|
A||---7-----------------7-----------------|
E||---------------------------------------|


-------------------------------------|--------------------------------------|
-----------0-----------------0-------|-----------0-----------------0--------|
--------0-----0-----------0----------|--------0-----0-----------0-----0-----|
-----7-----------7-----7--------7----|-----7-----------7-----7-----------7--|
--5-----------------5----------------|--4-----------------4-----------------|
-------------------------------------|--------------------------------------|


----------------------------------||---------------------------------------|
-----------0----------------------||------------0-----------------0--------|
--------0-----0------------------*||*--------0-----0-----------0-----0-----|
-----7-----------7---------------*||*-----9-----------9-----9-----------9--|
--3-----------------3-------------||---7-----------------7-----------------|
----------------------------------||---------------------------------------|


-------------------------------------|--------------------------------------|
-----------0-----------------0-------|-----------0-----------------0--------|
--------0-----0-----------0----------|--------0-----0-----------0-----0-----|
-----7-----------7-----7--------7----|-----7-----------7-----7-----------7--|
--5-----------------5----------------|--4-----------------4-----------------|
-------------------------------------|--------------------------------------|


----------------------------------||----7--7--7--7--7--7--7--7--7--7--7--7--||
-----------0----------------------||----8--8--8--8--8--8--7--7--7--7--7--7--||
--------0-----0------------------*||*---9--9--9--9--9--9--9--9--9--9--9--9-*||
-----7-----------7---------------*||*---9--9--9--9--9--9--9--9--9--9--9--9-*||
--3-----------------3-------------||----7--7--7--7--7--7--7--7--7--7--7--7--||
----------------------------------||----------------------------------------||

Gitar 2:

E||-------------------|------------------|------------------|
B||-------------------|------------------|------------------|
G||*------------------|------------------|------------------|
D||*------------------|------------------|------------------|
A||-------------------|------------------|------------------|
E||-------------------|------------------|------------------|


-------------------||---------------------------------------|
-------------------||------8-----7-----8-----8-----7-----8--|
------------------*||*--9-----9-----9-----9-----9-----9-----|
------------------*||*--------------------------------------|
-------------------||---------------------------------------|
-------------------||---------------------------------------|


--------------------------------------|--------------------------------------|
-----8-----7-----8-----8-----7-----8--|-----8-----7-----8-----8-----7-----8--|
--9-----9-----9-----9-----9-----9-----|--9-----9-----9-----9-----9-----9-----|
--------------------------------------|--------------------------------------|
--------------------------------------|--------------------------------------|
--------------------------------------|--------------------------------------|


----------------------------------||--------------------------------||
-----8-----7-----8----------------||--------------------------------||
--9-----9-----9-----9------------*||*------------------------------*||
---------------------------------*||*------------------------------*||
----------------------------------||--------------------------------||
----------------------------------||--------------------------------||


AKORLAR (söz kısmı):

E||----7--7--7--7--7--7--5--5--5--5--5--5-|
B||----8--8--8--8--8--8--7--7--7--7--7--7-|
G||*---9--9--9--9--9--9--7--7--7--7--7--7-|
D||*---9--9--9--9--9--9--7--7--7--7--7--7-|
A||----7--7--7--7--7--7--5--5--5--5--5--5-|
E||---------------------------------------|
açlığa gömdün bu canı niye...

--5---5-5---5-5---5-5---5-3---3-3---3-5---5-5---5--||
--5---5-5---5-5---5-5---5-3---3-3---3-7---7-7---7--||
--6---6-6---6-6---6-6---6-4---4-4---4-7---7-7---7-*||
--7---7-7---7-7---7-7---7-5---5-5---5-7---7-7---7-*||
--7---7-7---7-7---7-7---7-5---5-5---5-5---5-5---5--||
--5---5-5---5-5---5-5---5-3---3-3---3--------------||
toprağına güzellik tohumlarını eken benim...


NAKARAT:

*** Giriş Bölümüyle Aynı ***


KÖPRÜ:

E||-------------------------------------------7------||
B||--------------5-7-8-7-5--------------5-7-8---7-8--||
G||*-----------7-----------7----------7-------------*||
D||*--2---2-2----------------2---2-2----------------*||
A||---2---2-2----------------3---3-3-----------------||
E||---0---0-0----------------3---3-3-----------------||



Bu Yoruma Cevap Ver
MaTMeTaL | 16 Temmuz 2005 Cumartesi 21:17


Siz de Görüş Bildirin

Yorum yazma alanı Akor Merkezi üyelerine özel bir bölümdür. (Giriş Yap / Üye Ol / Şifremi Hatırlat)


PAYLAŞ

Reklam



Anket
ProGuitarplay soruyor:
Hangi Elektro Akustik Gitarı Almalıyım Bütçe 1500 TL












Sonuçlar | Sonuçlar & Yorumlar
Yeni Anket | Anketler




Reklam


Radyo Dinle
AkorMerkezi.com © 2014
İletişim - Gizlilik Politikası - Kullanım Koşulları - Kurallar - Son Yorumlar - Rastgele

GitarAkor.com kolonisidir. Derleme 0,05 saniye.