Akor Tab Söz Çeviri Anasayfası
Akor|Tab|Söz|Nota Arşivi
Gitar Akorları | Tab,Söz ve Nota Anasayfası | En Yeni Şarkılar | En Popüler Şarkılar | Akor Cetveli

Bilgiler
 
Seslendiren ve Şarkı: Levent Yüksel - Unutulurmuş
Biçim: Akor, Gitar Akorları - INTRO
Tarih: 11 Nisan 2009 Cumartesi
Gönderen: pentagram_deu
Toplam Okuyan: 7.492 kişi
Bu Ay Okuyan: 105 kişi
Bu Hafta Okuyan: 29 kişi
 
Beğendiniz mi? Unutulurmuş Akor sayfasını Şimdi paylaşın:

Levent Yüksel - Unutulurmuş - Akor


Puanlama:
 (10 kişi)

Unutulurmuş şarkısının diğer versiyonlarına bakın >>

Metin boyutu: ( + Büyült ) ( - Küçült)   
-------------------------------------------------------------------- 
-------------------------------------------------------------------- 
--------------------------------------------------------------------     x 2
---------5--------------7---------------------5-------------7------- 
-----7-------7—----7h8-----8----5---------7-------7---7h8-------8--- 
--5----------------------------------------------------------------- 




-------------------------------------------------------------------
------------3-----------------5----------------3---5---3---2------- 
---------------------------------------------------------------2--- 
----------5-----------------7---------------5---------------------- 
------5-----------------7----------------5------------------------- 
--3------------------5----------------3----------------------------



-------------------------------------------------------------------
-----------3-----------------5--------------3---3---2--------------
------------------------------------------------------------------- 
--------5-----------------7--------------5------------------------- 
-----5-----------------7--------------5---------------------------- 
--3-----------------5--------------3-------------------------------





Dm         C              Dm
Aşk intikam kokan çicek
     Dm         C            A
Sessizce simsiyah solar gider
         Gm
Kalbimde hançeri
        Bb      A
Acıtır rüyamda
Gm                   Bb   A            Dm 
Veda çeker kürekleri ağır ağır, uzaklara..

    Dm      C         Bb   A
  ( Söner nefes verir gibi aşk
  ( Dm     C           Bb     A
  ( Yürür hasret dolu vagonları
A ( Dm       C        Bb      A
  ( Yanan orman olmuş kalplerde
  ( Dm                  Dm
  ( Unutulur mu? Hiç unutulur mu?
  
    Dm      C         Bb   A
  ( Söner nefes verir gibi aşk
  ( Dm     C          Bb     A
  ( Yürür hasret dolu vagonları
B ( Dm        C       Bb     A
  ( Yanan orman olmuş yanlız kalpler
  ( Dm               Dm
  ( Unutulurmuş unutulurmuş



Dm         C         Dm
Aşk intikam kokan çicek
     Dm            C       A
Sessizce simsiyah solar gider
         Gm
Kalbimde külleri
        Bb  A
Acıtır yağarken
       Gm            Bb   A         Dm 
Veda çeker kürekleri ağır ağır, uzaklara..

Tekrar (A)(B) ve (B)

Dm      C         Dm
Aşk intikam kokan çicek...

 

Unutulurmuş Akor, AkorMerkezi.com'da yayınlanmıştır.
http://www.akormerkezi.com


İçerik Kısa Linki:


Beğendiniz mi? Unutulurmuş Akor sayfasını Şimdi paylaşın:


Levent Yüksel - Unutulurmuş KULLANILAN AKORLAR (Beta)
Dmx 0 0 2 3 1
C0 3 2 0 1 00 3 5 5 5 33 3 2 0 1 0
A0 0 2 2 2 00 4 x 2 5 05 7 7 6 5 5
Gm3 5 5 3 3 3x x 0 3 3 3
Bb1 1 3 3 3 1x 1 3 3 3 1x x 0 3 3 1
Şarkıda kullanılan akorların farklı şekillerde basılışlarıdır. (Detaylı bilgi)

Unutulurmuş Akor için Komoçotoko'dan Gelenler
Aramalar: bu aşk unutulur mu akor, aşk intikan kokan çiçek, levent yuksel intikam kokan cicek akor, ask intikam kokan cicek akork, levent yüksel ask intikam kokan akor, unutuluruşmus akor, intikam akor, levent yüksel unutulurmuş intro, levent yüksel aşk intikam kokan çiçek akorlari, levent yuksel
Levent Yüksel - Unutulurmuş için Kullanıcı Görüşleri

Henüz buraya yazan çizen olmamış. Yorum yapmak için buraya tıklayabilirsiniz.


Siz de Görüş Bildirin

Yorum yazma alanı Akor Merkezi üyelerine özel bir bölümdür. (Giriş Yap / Üye Ol / Şifremi Hatırlat)


PAYLAŞ

Reklam



Anket
jack sky soruyor:
Sizce En İyi Marka Hangisidir










Sonuçlar | Sonuçlar & Yorumlar
Yeni Anket | Anketler




Reklam


Radyo Dinle
AkorMerkezi.com © 2014
İletişim - Gizlilik Politikası - Kullanım Koşulları - Kurallar - Son Yorumlar - Rastgele

GitarAkor.com kolonisidir. Derleme 0,05 saniye.