Akor Tab Söz Çeviri Anasayfası
Akor|Tab|Söz|Nota Arşivi
Gitar Akorları | Tab,Söz ve Nota Anasayfası | En Yeni Şarkılar | En Popüler Şarkılar | Akor Cetveli

Bilgiler
 
Seslendiren ve Şarkı: Leyla The Band - Yokluğunda
Biçim: Bass Tab, Bass Gitar Tab - FULL
Tarih: 11 Temmuz 2013 Perşembe
Gönderen: asmalgs
Toplam Okuyan: 5.275 kişi
Bu Ay Okuyan: 221 kişi
Bu Hafta Okuyan: 22 kişi
 
Beğendiniz mi? Yokluğunda Bass Tab sayfasını Şimdi paylaşın:

Leyla The Band - Yokluğunda - Bass Tab


Puanlama:
 (1 kişi)

Yokluğunda şarkısının diğer versiyonlarına bakın >>

Metin boyutu: ( + Büyült ) ( - Küçült)   
Şarkıdaki bass yürüyüşünü tamamen mi teli üzerinden yapıyoruz.

C----------------|----------------|-----------------|-------------------
D----------------|----------------|-----------------|-------------------     
A----------------|----------------|-----------------|-------------------  5x
E-----5----------|-------0-------|--------1--------|------3-----------


-5--------0-----------1----3--0--3--5---
------Kaybet, bu öfkeni içinde sakladığın.

--5----0------------1-----3-------------5-
------Terket, o derdini benden almadığın.

-5--------0-----------1----3--0--3--5---
------Sabret, sonu  aynı değil söylüyorum

-5-----0----------1-----3-------------5--------
------Dinle, rüyalarım hergün aynı olmayacak...

-5--------0-----------1----3----0--3--5---
------Şimdi vazgeçersen geriye döneceksin

-5--------0-----------1----3-----0--3--5---
------Gitme, kaybedince daha çok seveceksin

-5------0--------1----3----0--3--5---------
----Biliyorum, hiçbir anlamı yok.

-5------7----5-----7---|--5-----7----5_7--8_7_5-7_5-3_5
Yokluğunda, yokluğunda yokluğunda    lala    lalala   lala  la la

Yokluğunda Bass Tab, AkorMerkezi.com'da yayınlanmıştır.
http://www.akormerkezi.com


İçerik Kısa Linki:


Beğendiniz mi? Yokluğunda Bass Tab sayfasını Şimdi paylaşın:



Yokluğunda Bass Tab için Komoçotoko'dan Gelenler
Aramalar: yoklugunda lalala, bas gitar tab, leyla the band yokluğunda bass tab, leyla the band yoklugunda bas, yoklugun bass, yokluğunda notaları, yokluğunda bas gitar tabları, leyla the band yokluğunda notaları, yokluğunda tabları, yoklugunda bas akor
Leyla The Band - Yokluğunda için Kullanıcı Görüşleri

Henüz buraya yazan çizen olmamış. Yorum yapmak için buraya tıklayabilirsiniz.


Siz de Görüş Bildirin

Yorum yazma alanı Akor Merkezi üyelerine özel bir bölümdür. (Giriş Yap / Üye Ol / Şifremi Hatırlat)


PAYLAŞ

Reklam



Anket
kdc* soruyor:
Nirvananın En Güzel Parçası













Sonuçlar | Sonuçlar & Yorumlar
Yeni Anket | Anketler




Reklam


Radyo Dinle
AkorMerkezi.com © 2014
İletişim - Gizlilik Politikası - Kullanım Koşulları - Kurallar - Son Yorumlar - Rastgele

GitarAkor.com kolonisidir. Derleme 0,05 saniye.