Akor Tab Söz Çeviri Anasayfası
Akor|Tab|Söz|Nota Arşivi
Gitar Akorları | Tab,Söz ve Nota Anasayfası | En Yeni Şarkılar | En Popüler Şarkılar | Akor Cetveli

Bilgiler
 
Seslendiren ve Şarkı: Leyla The Band - Yokluğunda
Biçim: TAB - SOLO
Tarih: 31 Mart 2013 Pazar
Gönderen: AhoTheGamer
Toplam Okuyan: 84.191 kişi
Bu Ay Okuyan: 2.778 kişi
Bu Hafta Okuyan: 582 kişi
 
Beğendiniz mi? Yokluğunda Tab sayfasını Şimdi paylaşın:

Leyla The Band - Yokluğunda - Tab


Puanlama:
 (37 kişi)

Yokluğunda şarkısının diğer versiyonlarına bakın >>

Metin boyutu: ( + Büyült ) ( - Küçült)   
e-----------------------------------------
b-----------------------------------------
g---5-7-7b8-7b8r7-5-7---5h7-5-4h5p4-2-0h2-
d-7-------------------7-------------------
a-----------------------------------------
E-----------------------------------------

e-----------------------------------------
b-888888-6-5---5-6-5----------------------
g------------7-------7-6--/7-7h9-7-9------
d-----------------------------------------
a-----------------------------------------
E-----------------------------------------

e-777-5-3h5p3-0h3--------10--------------------------------------
b------------------10b11----10b11r10-8--5h8-6-5h6p5s3-3h5-5-5----
g-------------------------------------------------------------5--
d----------------------------------------------------------------
a----------------------------------------------------------------
E----------------------------------------------------------------

e-------------------------------------
b-------------------------------------
g-7b8-(8)-7-5-------------------------
d-------------7-5h7-7-7-5-7-9b10-9----
a-------------------------------------
E-------------------------------------


Yokluğunda Tab, AkorMerkezi.com'da yayınlanmıştır.
http://www.akormerkezi.com


İçerik Kısa Linki:


Beğendiniz mi? Yokluğunda Tab sayfasını Şimdi paylaşın:



Yokluğunda Tab için Komoçotoko'dan Gelenler
Aramalar: leyla+band+yokluğunda+tab, leyla the band yokluğunda notaları, yokluğunda yokluğunda, leyla the band tab, yokluğunda leyla and, yokluğunda leyla and the band, akormerkezi.com, leyla the band dlnle, gitar tablari yokluğunda, leyla the band -yokluğunda tab
Leyla The Band - Yokluğunda için Kullanıcı Görüşleri

r : örneğin 14b15r 14. perdeyi 15 in değerinde yani 15 le aynı ses gelecek şekilde bend yapmak


Bu Yoruma Cevap Ver
mertklnc6 | 27 Haziran 2014 Cuma 10:33
Hammer on'ın türkçesi nedir? Veya ne yapmak oluyo o?


Bu Yoruma Cevap Ver
Monen42 | 05 Nisan 2014 Cumartesi 16:49
17 Nisan 2013 Çarşamba tarihinde Clu yazmıştı:
Şunları düzgün yazarsan anlaşılır kardeşim b h p r falan koymuşsun nedir onlar slide ise ''/'' falan koyup düzelt b ne r ne ? düzeltip tekrar yazarsan çok işimize yarar..
O teknikleri daha ögrenmediğine göre yapmana gerek yok zaten daha önce yapmadıysan direk şarkı içinde ypamak zor olur yapamassın hevesin kaçar. :) Tekniksiz çal sonra kendin eklersin duygu için teknik. İyi çalışmalar.


Bu Yoruma Cevap Ver
dbLoodb | 31 Temmuz 2013 Çarşamba 16:18
13 Mayıs 2013 Pazartesi tarihinde AhoTheGamer yazmıştı:
11 Mayıs 2013 Cumartesi tarihinde eblazteum yazmıştı:
Bu rarararaa derken ki tab nasıl olucak
e----------
b---------
g----------
d----------
a-0-2-3-2-0-2-0----0---2p0--
E------------------3-------------
Saol kardeşim aradığımı buldum :D


Bu Yoruma Cevap Ver
Oskioi | 28 Mayıs 2013 Salı 17:13
11 Mayıs 2013 Cumartesi tarihinde eblazteum yazmıştı:
Bu rarararaa derken ki tab nasıl olucak
e----------
b---------
g----------
d----------
a-0-2-3-2-0-2-0----0---2p0--
E------------------3-------------


Bu Yoruma Cevap Ver
AhoTheGamer | 13 Mayıs 2013 Pazartesi 22:43
Bu rarararaa derken ki tab nasıl olucak


Bu Yoruma Cevap Ver
eblazteum | 11 Mayıs 2013 Cumartesi 23:52
Gerçekten güzel olmuş ama hammer on pull oflar pek yerine oturmamış gibi, bir eksiklik var.


Bu Yoruma Cevap Ver
Kutluhn | 10 Mayıs 2013 Cuma 18:17
felan ne anlama geliyor nasıl kullanacağım lutfen yardım edın acıll


Bu Yoruma Cevap Ver
mesut. | 21 Nisan 2013 Pazar 20:27
21 Nisan 2013 Pazar tarihinde erderdi yazmıştı:
çalan var mı arkdaşlar bunu?
buyrun
http://www.youtube.com/watch?v=qb-Do6-QgFM


Bu Yoruma Cevap Ver
AhoTheGamer | 21 Nisan 2013 Pazar 19:28
çalan var mı arkdaşlar bunu?


Bu Yoruma Cevap Ver
erderdi | 21 Nisan 2013 Pazar 16:29
17 Nisan 2013 Çarşamba tarihinde Clu yazmıştı:
Şunları düzgün yazarsan anlaşılır kardeşim b h p r falan koymuşsun nedir onlar slide ise ''/'' falan koyup düzelt b ne r ne ? düzeltip tekrar yazarsan çok işimize yarar..
r=rebend
internet diye bişey var araştırmak o kadar zor olmasa gerek?


Bu Yoruma Cevap Ver
AhoTheGamer | 17 Nisan 2013 Çarşamba 22:35
17 Nisan 2013 Çarşamba tarihinde Clu yazmıştı:
Şunları düzgün yazarsan anlaşılır kardeşim b h p r falan koymuşsun nedir onlar slide ise ''/'' falan koyup düzelt b ne r ne ? düzeltip tekrar yazarsan çok işimize yarar..
B=Bend
H=Hammer On
P= Pull Off
S= Slide
V yada ~ = Titretme
r = Bunu tam hatırlamıyorum yanlış bilgi vermiyim


Bu Yoruma Cevap Ver
ZodiacsRage | 17 Nisan 2013 Çarşamba 19:32
Şunları düzgün yazarsan anlaşılır kardeşim b h p r falan koymuşsun nedir onlar slide ise ''/'' falan koyup düzelt b ne r ne ? düzeltip tekrar yazarsan çok işimize yarar..


Bu Yoruma Cevap Ver
Clu | 17 Nisan 2013 Çarşamba 17:57


Siz de Görüş Bildirin

Yorum yazma alanı Akor Merkezi üyelerine özel bir bölümdür. (Giriş Yap / Üye Ol / Şifremi Hatırlat)


PAYLAŞ

Reklam



Anket
Patriotic soruyor:
1 Yıldır Klasik Gitar Çalıyorum Elektro Alırsam Kendim Geliştirebilir Miyim?








Sonuçlar | Sonuçlar & Yorumlar
Yeni Anket | Anketler




Reklam


Radyo Dinle
AkorMerkezi.com © 2014
İletişim - Gizlilik Politikası - Kullanım Koşulları - Kurallar - Son Yorumlar - Rastgele

GitarAkor.com kolonisidir. Derleme 0,09 saniye.