Akor Tab Söz Çeviri Anasayfası
Akor|Tab|Söz|Nota Arşivi
Gitar Akorları | Tab,Söz ve Nota Anasayfası | En Yeni Şarkılar | En Popüler Şarkılar | Akor Cetveli

Bilgiler
 
Seslendiren ve Şarkı: Mabel Matiz - Aşk Yok Olmaktır
Biçim: TAB - INTRO
Tarih: 01 Mayıs 2013 Çarşamba
Gönderen: ElecTrafo
Toplam Okuyan: 23.435 kişi
Bu Ay Okuyan: 327 kişi
Bu Hafta Okuyan: 50 kişi
 
Beğendiniz mi? Aşk Yok Olmaktır Tab sayfasını Şimdi paylaşın:

Mabel Matiz - Aşk Yok Olmaktır - Tab


Puanlama:
 (8 kişi)

Aşk Yok Olmaktır şarkısının diğer versiyonlarına bakın >>

Metin boyutu: ( + Büyült ) ( - Küçült)   
E------------------------------------------------
B----------------------------------3-1-0---------
G-----2--5-4-2-4---5-4-2-4--2-4-5--------2-0-----
D--2-----------------------------------------3-2-
A------------------------------------------------
E------------------------------------------------

---------------------------------------------
-----------------------------3-1-0-----------
2--5-4-2-4---5-4-2-4--2-4-5--------2-0-------
---------------------------------------3-2---
---------------------------------------------
---------------------------------------------


E------------------------------------------------
B----------------------------------3-1-0---------
G-----2--5-4-2-4---5-4-2-4--2-4-5--------2-0-----
D--2-----------------------------------------3-2-
A------------------------------------------------
E------------------------------------------------

---------------------------------------------
-----------------------------3-1-0-----------
2--5-4-2-4---5-4-2-4--2-4-5--------2-0-------
---------------------------------------3h5---gidiyo
---------------------------------------------
---------------------------------------------


ElecTrafo
Aşk Yok Olmaktır Tab, AkorMerkezi.com'da yayınlanmıştır.
http://www.akormerkezi.com


İçerik Kısa Linki:


Beğendiniz mi? Aşk Yok Olmaktır Tab sayfasını Şimdi paylaşın:


Aşk Yok Olmaktır şarkısı için amatör kayıtları dinleyin: (Siz de Ekleyin)

Aşk Yok Olmaktır Tab için Komoçotoko'dan Gelenler
Aramalar: aşk yokolmaktır tab, aşk yok olmaktır solosu, mabel matiz aşk yok olmaktır tabi, aşk yok olmaktır orjinal akor, ask yok olmaktir rab, mabel matiz aşk yok olmaktir notalari, orjinal ton aşk yok olmaktır, aşk yok olmaktır akor orjinal, mabel matiz aşk yok olmaktır solo akor, mabel matiz aşk yok olmaktır solo tab
Mabel Matiz - Aşk Yok Olmaktır için Kullanıcı Görüşleri

eline sağlık kardeşim


Bu Yoruma Cevap Ver
osy | 16 Aralık 2014 Salı 23:07


Siz de Görüş Bildirin

Yorum yazma alanı Akor Merkezi üyelerine özel bir bölümdür. (Giriş Yap / Üye Ol / Şifremi Hatırlat)


PAYLAŞ




Anket
ofk soruyor:
Placebo'yu Sever Misiniz








Sonuçlar | Sonuçlar & Yorumlar
Yeni Anket | Anketler






Radyo Dinle
AkorMerkezi.com © 2014
İletişim - Gizlilik Politikası - Kullanım Koşulları - Kurallar - Son Yorumlar - Rastgele

GitarAkor.com kolonisidir. Derleme 0,05 saniye.